  0
SECTION
  2
HEADER
  9
$ACADVER
  1
AC1015
  9
$ACADMAINTVER
 70
    20
  9
$DWGCODEPAGE
  3
ANSI_1252
  9
$INSBASE
 10
0.0
 20
0.0
 30
0.0
  9
$EXTMIN
 10
-55.10571887396912
 20
-211.3031645970158
 30
0.0
  9
$EXTMAX
 10
887.8005490887316
 20
425.7516183744113
 30
0.0
  9
$LIMMIN
 10
0.0
 20
0.0
  9
$LIMMAX
 10
420.0
 20
297.0
  9
$ORTHOMODE
 70
     1
  9
$REGENMODE
 70
     1
  9
$FILLMODE
 70
     1
  9
$QTEXTMODE
 70
     0
  9
$MIRRTEXT
 70
     0
  9
$LTSCALE
 40
1.0
  9
$ATTMODE
 70
     1
  9
$TEXTSIZE
 40
2.5
  9
$TRACEWID
 40
1.0
  9
$TEXTSTYLE
  7
Standard
  9
$CLAYER
  8
0
  9
$CELTYPE
  6
ByLayer
  9
$CECOLOR
 62
   256
  9
$CELTSCALE
 40
1.0
  9
$DISPSILH
 70
     0
  9
$DIMSCALE
 40
1.0
  9
$DIMASZ
 40
2.5
  9
$DIMEXO
 40
0.625
  9
$DIMDLI
 40
3.75
  9
$DIMRND
 40
0.0
  9
$DIMDLE
 40
0.0
  9
$DIMEXE
 40
1.25
  9
$DIMTP
 40
0.0
  9
$DIMTM
 40
0.0
  9
$DIMTXT
 40
2.5
  9
$DIMCEN
 40
2.5
  9
$DIMTSZ
 40
0.0
  9
$DIMTOL
 70
     0
  9
$DIMLIM
 70
     0
  9
$DIMTIH
 70
     0
  9
$DIMTOH
 70
     0
  9
$DIMSE1
 70
     0
  9
$DIMSE2
 70
     0
  9
$DIMTAD
 70
     1
  9
$DIMZIN
 70
     8
  9
$DIMBLK
  1

  9
$DIMASO
 70
     1
  9
$DIMSHO
 70
     1
  9
$DIMPOST
  1

  9
$DIMAPOST
  1

  9
$DIMALT
 70
     0
  9
$DIMALTD
 70
     3
  9
$DIMALTF
 40
0.03937007874016
  9
$DIMLFAC
 40
1.0
  9
$DIMTOFL
 70
     1
  9
$DIMTVP
 40
0.0
  9
$DIMTIX
 70
     0
  9
$DIMSOXD
 70
     0
  9
$DIMSAH
 70
     0
  9
$DIMBLK1
  1

  9
$DIMBLK2
  1

  9
$DIMSTYLE
  2
ISO-25
  9
$DIMCLRD
 70
     0
  9
$DIMCLRE
 70
     0
  9
$DIMCLRT
 70
     0
  9
$DIMTFAC
 40
1.0
  9
$DIMGAP
 40
0.625
  9
$DIMJUST
 70
     0
  9
$DIMSD1
 70
     0
  9
$DIMSD2
 70
     0
  9
$DIMTOLJ
 70
     0
  9
$DIMTZIN
 70
     8
  9
$DIMALTZ
 70
     0
  9
$DIMALTTZ
 70
     0
  9
$DIMUPT
 70
     0
  9
$DIMDEC
 70
     2
  9
$DIMTDEC
 70
     2
  9
$DIMALTU
 70
     2
  9
$DIMALTTD
 70
     3
  9
$DIMTXSTY
  7
Standard
  9
$DIMAUNIT
 70
     0
  9
$DIMADEC
 70
     0
  9
$DIMALTRND
 40
0.0
  9
$DIMAZIN
 70
     0
  9
$DIMDSEP
 70
    44
  9
$DIMATFIT
 70
     3
  9
$DIMFRAC
 70
     0
  9
$DIMLDRBLK
  1

  9
$DIMLUNIT
 70
     2
  9
$DIMLWD
 70
    -2
  9
$DIMLWE
 70
    -2
  9
$DIMTMOVE
 70
     0
  9
$LUNITS
 70
     2
  9
$LUPREC
 70
     4
  9
$SKETCHINC
 40
1.0
  9
$FILLETRAD
 40
0.0
  9
$AUNITS
 70
     0
  9
$AUPREC
 70
     0
  9
$MENU
  1
.
  9
$ELEVATION
 40
0.0
  9
$PELEVATION
 40
0.0
  9
$THICKNESS
 40
0.0
  9
$LIMCHECK
 70
     0
  9
$CHAMFERA
 40
0.0
  9
$CHAMFERB
 40
0.0
  9
$CHAMFERC
 40
0.0
  9
$CHAMFERD
 40
0.0
  9
$SKPOLY
 70
     0
  9
$TDCREATE
 40
2454083.686085544
  9
$TDUCREATE
 40
2454083.644418877
  9
$TDUPDATE
 40
2454124.733063079
  9
$TDUUPDATE
 40
2454124.691396412
  9
$TDINDWG
 40
0.0564317361
  9
$TDUSRTIMER
 40
0.0564303472
  9
$USRTIMER
 70
     1
  9
$ANGBASE
 50
0.0
  9
$ANGDIR
 70
     0
  9
$PDMODE
 70
     0
  9
$PDSIZE
 40
0.0
  9
$PLINEWID
 40
0.0
  9
$SPLFRAME
 70
     0
  9
$SPLINETYPE
 70
     6
  9
$SPLINESEGS
 70
     8
  9
$HANDSEED
  5
368
  9
$SURFTAB1
 70
     6
  9
$SURFTAB2
 70
     6
  9
$SURFTYPE
 70
     6
  9
$SURFU
 70
     6
  9
$SURFV
 70
     6
  9
$UCSBASE
  2

  9
$UCSNAME
  2

  9
$UCSORG
 10
0.0
 20
0.0
 30
0.0
  9
$UCSXDIR
 10
1.0
 20
0.0
 30
0.0
  9
$UCSYDIR
 10
0.0
 20
1.0
 30
0.0
  9
$UCSORTHOREF
  2

  9
$UCSORTHOVIEW
 70
     0
  9
$UCSORGTOP
 10
0.0
 20
0.0
 30
0.0
  9
$UCSORGBOTTOM
 10
0.0
 20
0.0
 30
0.0
  9
$UCSORGLEFT
 10
0.0
 20
0.0
 30
0.0
  9
$UCSORGRIGHT
 10
0.0
 20
0.0
 30
0.0
  9
$UCSORGFRONT
 10
0.0
 20
0.0
 30
0.0
  9
$UCSORGBACK
 10
0.0
 20
0.0
 30
0.0
  9
$PUCSBASE
  2

  9
$PUCSNAME
  2

  9
$PUCSORG
 10
0.0
 20
0.0
 30
0.0
  9
$PUCSXDIR
 10
1.0
 20
0.0
 30
0.0
  9
$PUCSYDIR
 10
0.0
 20
1.0
 30
0.0
  9
$PUCSORTHOREF
  2

  9
$PUCSORTHOVIEW
 70
     0
  9
$PUCSORGTOP
 10
0.0
 20
0.0
 30
0.0
  9
$PUCSORGBOTTOM
 10
0.0
 20
0.0
 30
0.0
  9
$PUCSORGLEFT
 10
0.0
 20
0.0
 30
0.0
  9
$PUCSORGRIGHT
 10
0.0
 20
0.0
 30
0.0
  9
$PUCSORGFRONT
 10
0.0
 20
0.0
 30
0.0
  9
$PUCSORGBACK
 10
0.0
 20
0.0
 30
0.0
  9
$USERI1
 70
     0
  9
$USERI2
 70
     0
  9
$USERI3
 70
     0
  9
$USERI4
 70
     0
  9
$USERI5
 70
     0
  9
$USERR1
 40
0.0
  9
$USERR2
 40
0.0
  9
$USERR3
 40
0.0
  9
$USERR4
 40
0.0
  9
$USERR5
 40
0.0
  9
$WORLDVIEW
 70
     1
  9
$SHADEDGE
 70
     3
  9
$SHADEDIF
 70
    70
  9
$TILEMODE
 70
     1
  9
$MAXACTVP
 70
    64
  9
$PINSBASE
 10
0.0
 20
0.0
 30
0.0
  9
$PLIMCHECK
 70
     0
  9
$PEXTMIN
 10
0.0
 20
0.0
 30
0.0
  9
$PEXTMAX
 10
0.0
 20
0.0
 30
0.0
  9
$PLIMMIN
 10
0.0
 20
0.0
  9
$PLIMMAX
 10
12.0
 20
9.0
  9
$UNITMODE
 70
     0
  9
$VISRETAIN
 70
     1
  9
$PLINEGEN
 70
     0
  9
$PSLTSCALE
 70
     1
  9
$TREEDEPTH
 70
  3020
  9
$CMLSTYLE
  2
Standard
  9
$CMLJUST
 70
     0
  9
$CMLSCALE
 40
20.0
  9
$PROXYGRAPHICS
 70
     1
  9
$MEASUREMENT
 70
     1
  9
$CELWEIGHT
370
    -1
  9
$ENDCAPS
280
     0
  9
$JOINSTYLE
280
     0
  9
$LWDISPLAY
290
     0
  9
$INSUNITS
 70
     4
  9
$HYPERLINKBASE
  1

  9
$STYLESHEET
  1

  9
$XEDIT
290
     1
  9
$CEPSNTYPE
380
     0
  9
$PSTYLEMODE
290
     1
  9
$FINGERPRINTGUID
  2
{6DD13013-5264-40A1-8A73-F50761270174}
  9
$VERSIONGUID
  2
{EAFE533D-CBF3-42A8-AF43-DDEAFA936134}
  9
$EXTNAMES
290
     1
  9
$PSVPSCALE
 40
0.0
  9
$OLESTARTUP
290
     0
  0
ENDSEC
  0
SECTION
  2
CLASSES
  0
CLASS
  1
ACDBDICTIONARYWDFLT
  2
AcDbDictionaryWithDefault
  3
ObjectDBX Classes
 90
        0
280
     0
281
     0
  0
CLASS
  1
ACDBPLACEHOLDER
  2
AcDbPlaceHolder
  3
ObjectDBX Classes
 90
        0
280
     0
281
     0
  0
CLASS
  1
LAYOUT
  2
AcDbLayout
  3
ObjectDBX Classes
 90
        0
280
     0
281
     0
  0
CLASS
  1
DICTIONARYVAR
  2
AcDbDictionaryVar
  3
ObjectDBX Classes
 90
        0
280
     0
281
     0
  0
CLASS
  1
TABLESTYLE
  2
AcDbTableStyle
  3
ObjectDBX Classes
 90
     4095
280
     0
281
     0
  0
CLASS
  1
MATERIAL
  2
AcDbMaterial
  3
ObjectDBX Classes
 90
     1024
280
     0
281
     0
  0
CLASS
  1
VISUALSTYLE
  2
AcDbVisualStyle
  3
ObjectDBX Classes
 90
     4095
280
     0
281
     0
  0
CLASS
  1
SORTENTSTABLE
  2
AcDbSortentsTable
  3
ObjectDBX Classes
 90
        0
280
     0
281
     0
  0
ENDSEC
  0
SECTION
  2
TABLES
  0
TABLE
  2
VPORT
  5
8
330
0
100
AcDbSymbolTable
 70
     1
  0
VPORT
  5
EA
330
8
100
AcDbSymbolTableRecord
100
AcDbViewportTableRecord
  2
*Active
 70
     0
 10
0.0
 20
0.0
 11
1.0
 21
1.0
 12
454.9207290925311
 22
107.2207896935274
 13
0.0
 23
0.0
 14
10.0
 24
10.0
 15
10.0
 25
10.0
 16
0.0
 26
0.0
 36
1.0
 17
0.0
 27
0.0
 37
0.0
 40
646.6771600713789
 41
1.837708830548925
 42
50.0
 43
0.0
 44
0.0
 50
0.0
 51
0.0
 71
     0
 72
  1000
 73
     1
 74
     2
 75
     0
 76
     0
 77
     0
 78
     0
281
     0
 65
     1
110
0.0
120
0.0
130
0.0
111
1.0
121
0.0
131
0.0
112
0.0
122
1.0
132
0.0
 79
     0
146
0.0
  0
ENDTAB
  0
TABLE
  2
LTYPE
  5
5
330
0
100
AcDbSymbolTable
 70
     2
  0
LTYPE
  5
14
330
5
100
AcDbSymbolTableRecord
100
AcDbLinetypeTableRecord
  2
ByBlock
 70
     0
  3

 72
    65
 73
     0
 40
0.0
  0
LTYPE
  5
15
330
5
100
AcDbSymbolTableRecord
100
AcDbLinetypeTableRecord
  2
ByLayer
 70
     0
  3

 72
    65
 73
     0
 40
0.0
  0
LTYPE
  5
16
330
5
100
AcDbSymbolTableRecord
100
AcDbLinetypeTableRecord
  2
Continuous
 70
     0
  3
Solid line
 72
    65
 73
     0
 40
0.0
  0
LTYPE
  5
16F
330
5
100
AcDbSymbolTableRecord
100
AcDbLinetypeTableRecord
  2
TRATTOPUNTO
 70
     0
  3
Tratto punto__ . __ . __ . __ . __ . __ . __ . __
 72
    65
 73
     4
 40
25.4
 49
12.7
 74
     0
 49
-6.349999999999998
 74
     0
 49
0.0
 74
     0
 49
-6.349999999999998
 74
     0
  0
ENDTAB
  0
TABLE
  2
LAYER
  5
2
102
{ACAD_XDICTIONARY
360
118
102
}
330
0
100
AcDbSymbolTable
 70
     3
  0
LAYER
  5
10
330
2
100
AcDbSymbolTableRecord
100
AcDbLayerTableRecord
  2
0
 70
     0
 62
   255
  6
Continuous
370
    -3
390
F
  0
LAYER
  5
117
330
2
100
AcDbSymbolTableRecord
100
AcDbLayerTableRecord
  2
2
 70
     0
 62
    12
  6
Continuous
370
    -3
390
F
1001
AcAecLayerStandard
1000

1000

  0
LAYER
  5
180
330
2
100
AcDbSymbolTableRecord
100
AcDbLayerTableRecord
  2
1
 70
     0
 62
   250
  6
Continuous
370
    -3
390
F
1001
AcAecLayerStandard
1000

1000

  0
ENDTAB
  0
TABLE
  2
STYLE
  5
3
330
0
100
AcDbSymbolTable
 70
     1
  0
STYLE
  5
11
330
3
100
AcDbSymbolTableRecord
100
AcDbTextStyleTableRecord
  2
Standard
 70
     0
 40
0.0
 41
1.0
 50
0.0
 71
     0
 42
2.5
  3
txt
  4

  0
ENDTAB
  0
TABLE
  2
VIEW
  5
6
330
0
100
AcDbSymbolTable
 70
     0
  0
ENDTAB
  0
TABLE
  2
UCS
  5
7
330
0
100
AcDbSymbolTable
 70
     0
  0
ENDTAB
  0
TABLE
  2
APPID
  5
9
330
0
100
AcDbSymbolTable
 70
     4
  0
APPID
  5
12
330
9
100
AcDbSymbolTableRecord
100
AcDbRegAppTableRecord
  2
ACAD
 70
     0
  0
APPID
  5
9E
330
9
100
AcDbSymbolTableRecord
100
AcDbRegAppTableRecord
  2
ACAD_PSEXT
 70
     0
  0
APPID
  5
115
330
9
100
AcDbSymbolTableRecord
100
AcDbRegAppTableRecord
  2
AcAecLayerStandard
 70
     0
  0
APPID
  5
306
330
9
100
AcDbSymbolTableRecord
100
AcDbRegAppTableRecord
  2
PE_URL
 70
     0
  0
ENDTAB
  0
TABLE
  2
DIMSTYLE
  5
A
330
0
100
AcDbSymbolTable
 70
     1
100
AcDbDimStyleTable
 71
     1
340
27
  0
DIMSTYLE
105
27
330
A
100
AcDbSymbolTableRecord
100
AcDbDimStyleTableRecord
  2
ISO-25
 70
     0
 41
2.5
 42
0.625
 43
3.75
 44
1.25
 73
     0
 74
     0
 77
     1
 78
     8
140
2.5
141
2.5
143
0.03937007874016
147
0.625
171
     3
172
     1
271
     2
272
     2
274
     3
278
    44
283
     0
284
     8
340
11
  0
ENDTAB
  0
TABLE
  2
BLOCK_RECORD
  5
1
330
0
100
AcDbSymbolTable
 70
     1
  0
BLOCK_RECORD
  5
1F
102
{ACAD_XDICTIONARY
360
11C
102
}
330
1
100
AcDbSymbolTableRecord
100
AcDbBlockTableRecord
  2
*Model_Space
340
22
  0
BLOCK_RECORD
  5
D2
330
1
100
AcDbSymbolTableRecord
100
AcDbBlockTableRecord
  2
*Paper_Space
340
D3
  0
BLOCK_RECORD
  5
D6
330
1
100
AcDbSymbolTableRecord
100
AcDbBlockTableRecord
  2
*Paper_Space0
340
D7
  0
ENDTAB
  0
ENDSEC
  0
SECTION
  2
BLOCKS
  0
BLOCK
  5
20
330
1F
100
AcDbEntity
  8
0
100
AcDbBlockBegin
  2
*Model_Space
 70
     0
 10
0.0
 20
0.0
 30
0.0
  3
*Model_Space
  1

  0
ENDBLK
  5
21
330
1F
100
AcDbEntity
  8
0
100
AcDbBlockEnd
  0
BLOCK
  5
D4
330
D2
100
AcDbEntity
 67
     1
  8
0
100
AcDbBlockBegin
  2
*Paper_Space
 70
     0
 10
0.0
 20
0.0
 30
0.0
  3
*Paper_Space
  1

  0
ENDBLK
  5
D5
330
D2
100
AcDbEntity
 67
     1
  8
0
100
AcDbBlockEnd
  0
BLOCK
  5
D8
330
D6
100
AcDbEntity
 67
     1
  8
0
100
AcDbBlockBegin
  2
*Paper_Space0
 70
     0
 10
0.0
 20
0.0
 30
0.0
  3
*Paper_Space0
  1

  0
ENDBLK
  5
D9
330
D6
100
AcDbEntity
 67
     1
  8
0
100
AcDbBlockEnd
  0
ENDSEC
  0
SECTION
  2
ENTITIES
  0
LINE
  5
113
102
{ACAD_REACTORS
330
155
102
}
330
1F
100
AcDbEntity
  8
1
100
AcDbLine
 10
153.9199619589248
 20
340.416300641094
 30
0.0
 11
357.6764039752802
 21
340.416300641094
 31
0.0
  0
LINE
  5
11B
102
{ACAD_REACTORS
330
162
330
169
102
}
330
1F
100
AcDbEntity
  8
1
100
AcDbLine
 10
156.8636175039327
 20
280.4163006410941
 30
0.0
 11
360.6200595202882
 21
280.4163006410941
 31
0.0
  0
LINE
  5
11E
102
{ACAD_REACTORS
330
155
330
162
102
}
330
1F
100
AcDbEntity
  8
1
  6
TRATTOPUNTO
100
AcDbLine
 10
-23.12432719505336
 20
310.4163006410942
 30
0.0
 11
359.1947611699849
 21
310.416300641094
 31
0.0
  0
POLYLINE
  5
122
102
{ACAD_REACTORS
330
155
330
162
102
}
330
1F
100
AcDbEntity
  8
1
  6
TRATTOPUNTO
100
AcDb2dPolyline
 66
     1
 10
0.0
 20
0.0
 30
0.0
 70
   132
 75
     6
  0
VERTEX
  5
12B
330
122
100
AcDbEntity
  8
1
  6
TRATTOPUNTO
100
AcDbVertex
100
AcDb2dVertex
 10
158.6278906679691
 20
362.5117897222184
 30
0.0
 70
    16
  0
VERTEX
  5
130
330
122
100
AcDbEntity
  8
1
  6
TRATTOPUNTO
100
AcDbVertex
100
AcDb2dVertex
 10
158.6278906679691
 20
362.5117897222184
 30
0.0
 70
     8
  0
VERTEX
  5
131
330
122
100
AcDbEntity
  8
1
  6
TRATTOPUNTO
100
AcDbVertex
100
AcDb2dVertex
 10
154.7813022369032
 20
349.0667213686227
 30
0.0
 70
     8
  0
VERTEX
  5
132
330
122
100
AcDbEntity
  8
1
  6
TRATTOPUNTO
100
AcDbVertex
100
AcDb2dVertex
 10
153.5051190851664
 20
336.2500431403427
 30
0.0
 70
     8
  0
VERTEX
  5
133
330
122
100
AcDbEntity
  8
1
  6
TRATTOPUNTO
100
AcDbVertex
100
AcDb2dVertex
 10
153.9605773736601
 20
323.8252641135371
 30
0.0
 70
     8
  0
VERTEX
  5
134
330
122
100
AcDbEntity
  8
1
  6
TRATTOPUNTO
100
AcDbVertex
100
AcDb2dVertex
 10
155.3089132632855
 20
311.5558933643654
 30
0.0
 70
     8
  0
VERTEX
  5
135
330
122
100
AcDbEntity
  8
1
  6
TRATTOPUNTO
100
AcDbVertex
100
AcDb2dVertex
 10
156.7113629149438
 20
299.205439968987
 30
0.0
 70
     8
  0
VERTEX
  5
136
330
122
100
AcDbEntity
  8
1
  6
TRATTOPUNTO
100
AcDbVertex
100
AcDb2dVertex
 10
157.3291624895361
 20
286.5374130035609
 30
0.0
 70
     8
  0
VERTEX
  5
137
330
122
100
AcDbEntity
  8
1
  6
TRATTOPUNTO
100
AcDbVertex
100
AcDb2dVertex
 10
156.3235481479639
 20
273.3153215442463
 30
0.0
 70
     8
  0
VERTEX
  5
138
330
122
100
AcDbEntity
  8
1
  6
TRATTOPUNTO
100
AcDbVertex
100
AcDb2dVertex
 10
152.8557560511281
 20
259.3026746672026
 30
0.0
 70
     8
  0
VERTEX
  5
12C
330
122
100
AcDbEntity
  8
1
  6
TRATTOPUNTO
100
AcDbVertex
100
AcDb2dVertex
 10
144.1975466223776
 20
325.610206457684
 30
0.0
 70
    16
  0
VERTEX
  5
12D
330
122
100
AcDbEntity
  8
1
  6
TRATTOPUNTO
100
AcDbVertex
100
AcDb2dVertex
 10
166.1316731733514
 20
297.9340210508167
 30
0.0
 70
    16
  0
VERTEX
  5
12E
330
122
100
AcDbEntity
  8
1
  6
TRATTOPUNTO
100
AcDbVertex
100
AcDb2dVertex
 10
152.8557560511281
 20
259.3026746672026
 30
0.0
 70
    16
  0
SEQEND
  5
12F
330
122
100
AcDbEntity
  8
1
  6
TRATTOPUNTO
  0
POLYLINE
  5
139
102
{ACAD_REACTORS
330
155
330
162
102
}
330
1F
100
AcDbEntity
  8
1
  6
TRATTOPUNTO
100
AcDb2dPolyline
 66
     1
 10
0.0
 20
0.0
 30
0.0
 70
   132
 75
     6
  0
VERTEX
  5
13A
330
139
100
AcDbEntity
  8
1
  6
TRATTOPUNTO
100
AcDbVertex
100
AcDb2dVertex
 10
362.3843326843243
 20
362.5117897222184
 30
0.0
 70
    16
  0
VERTEX
  5
13B
330
139
100
AcDbEntity
  8
1
  6
TRATTOPUNTO
100
AcDbVertex
100
AcDb2dVertex
 10
362.3843326843243
 20
362.5117897222184
 30
0.0
 70
     8
  0
VERTEX
  5
13C
330
139
100
AcDbEntity
  8
1
  6
TRATTOPUNTO
100
AcDbVertex
100
AcDb2dVertex
 10
358.5377442532585
 20
349.0667213686227
 30
0.0
 70
     8
  0
VERTEX
  5
13D
330
139
100
AcDbEntity
  8
1
  6
TRATTOPUNTO
100
AcDbVertex
100
AcDb2dVertex
 10
357.2615611015217
 20
336.2500431403427
 30
0.0
 70
     8
  0
VERTEX
  5
13E
330
139
100
AcDbEntity
  8
1
  6
TRATTOPUNTO
100
AcDbVertex
100
AcDb2dVertex
 10
357.7170193900155
 20
323.8252641135371
 30
0.0
 70
     8
  0
VERTEX
  5
13F
330
139
100
AcDbEntity
  8
1
  6
TRATTOPUNTO
100
AcDbVertex
100
AcDb2dVertex
 10
359.0653552796409
 20
311.5558933643654
 30
0.0
 70
     8
  0
VERTEX
  5
140
330
139
100
AcDbEntity
  8
1
  6
TRATTOPUNTO
100
AcDbVertex
100
AcDb2dVertex
 10
360.4678049312992
 20
299.205439968987
 30
0.0
 70
     8
  0
VERTEX
  5
141
330
139
100
AcDbEntity
  8
1
  6
TRATTOPUNTO
100
AcDbVertex
100
AcDb2dVertex
 10
361.0856045058915
 20
286.5374130035609
 30
0.0
 70
     8
  0
VERTEX
  5
142
330
139
100
AcDbEntity
  8
1
  6
TRATTOPUNTO
100
AcDbVertex
100
AcDb2dVertex
 10
360.0799901643191
 20
273.3153215442463
 30
0.0
 70
     8
  0
VERTEX
  5
143
330
139
100
AcDbEntity
  8
1
  6
TRATTOPUNTO
100
AcDbVertex
100
AcDb2dVertex
 10
356.6121980674834
 20
259.3026746672026
 30
0.0
 70
     8
  0
VERTEX
  5
144
330
139
100
AcDbEntity
  8
1
  6
TRATTOPUNTO
100
AcDbVertex
100
AcDb2dVertex
 10
347.9539886387329
 20
325.610206457684
 30
0.0
 70
    16
  0
VERTEX
  5
145
330
139
100
AcDbEntity
  8
1
  6
TRATTOPUNTO
100
AcDbVertex
100
AcDb2dVertex
 10
369.8881151897067
 20
297.9340210508167
 30
0.0
 70
    16
  0
VERTEX
  5
146
330
139
100
AcDbEntity
  8
1
  6
TRATTOPUNTO
100
AcDbVertex
100
AcDb2dVertex
 10
356.6121980674834
 20
259.3026746672026
 30
0.0
 70
    16
  0
SEQEND
  5
147
330
139
100
AcDbEntity
  8
1
  6
TRATTOPUNTO
  0
LINE
  5
148
102
{ACAD_REACTORS
330
162
330
169
102
}
330
1F
100
AcDbEntity
  8
2
100
AcDbLine
 10
225.5846822372806
 20
280.4163006410938
 30
0.0
 11
225.5846822372806
 21
302.5467158965827
 31
0.0
  0
LINE
  5
149
102
{ACAD_REACTORS
330
162
330
169
102
}
330
1F
100
AcDbEntity
  8
2
100
AcDbLine
 10
225.5846822372806
 20
302.5467158965827
 30
0.0
 11
300.0452563119753
 21
302.5467158965827
 31
0.0
  0
LINE
  5
14A
102
{ACAD_REACTORS
330
162
330
169
102
}
330
1F
100
AcDbEntity
  8
2
100
AcDbLine
 10
300.0452563119753
 20
302.5467158965827
 30
0.0
 11
300.0452563119754
 21
280.4163006410939
 31
0.0
  0
HATCH
  5
155
330
1F
100
AcDbEntity
  8
1
100
AcDbHatch
 10
0.0
 20
0.0
 30
0.0
210
0.0
220
0.0
230
1.0
  2
ANSI31
 70
     0
 71
     1
 91
        1
 92
        7
 72
     0
 73
     1
 93
       10
 10
153.9199619589247
 20
340.416300641094
 10
153.5051190851664
 20
336.2500431403425
 10
153.9605773736601
 20
323.8252641135368
 10
155.3089132632859
 20
311.5558933643712
 10
155.4383191536307
 20
310.4163006410942
 10
359.1947611699851
 20
310.4163006410942
 10
359.0653552796438
 20
311.5558933643384
 10
357.7170193900157
 20
323.8252641135358
 10
357.2615611015217
 20
336.250043140342
 10
357.6764039752802
 20
340.416300641094
 97
        4
330
139
330
113
330
122
330
11E
 75
     0
 76
     1
 52
0.0
 41
4.0
 77
     0
 78
     1
 53
45.0
 43
153.5051190851664
 44
310.4163006410939
 45
-8.98025612106915
 46
8.980256121069151
 79
     0
 47
0.5765872397235508
 98
        1
 10
240.5922397445566
 20
330.2229053865171
1001
ACAD
1010
657.0618427236695
1020
1011.678262926826
1030
0.0
  0
HATCH
  5
162
330
1F
100
AcDbEntity
  8
1
100
AcDbHatch
 10
0.0
 20
0.0
 30
0.0
210
0.0
220
0.0
230
1.0
  2
ANSI31
 70
     0
 71
     1
 91
        1
 92
        7
 72
     0
 73
     1
 93
       12
 10
155.4383191536297
 20
310.4163006410942
 10
156.7113629149438
 20
299.2054399689863
 10
157.3291624895361
 20
286.537413003561
 10
156.8636175039328
 20
280.4163006410941
 10
225.5846822372805
 20
280.4163006410941
 10
225.5846822372805
 20
302.5467158965827
 10
300.0452563119753
 20
302.5467158965827
 10
300.0452563119754
 20
280.4163006410941
 10
360.6200595202882
 20
280.4163006410941
 10
361.0856045058915
 20
286.5374130035613
 10
360.4678049312992
 20
299.2054399689863
 10
359.1947611699851
 20
310.416300641094
 97
        7
330
149
330
14A
330
11B
330
139
330
11E
330
122
330
148
 75
     0
 76
     1
 52
0.0
 41
4.0
 77
     0
 78
     1
 53
45.0
 43
153.5051190851664
 44
310.4163006410939
 45
-8.98025612106915
 46
8.980256121069151
 79
     0
 47
0.5765872397235508
 98
        1
 10
188.0657922208366
 20
297.3574306224114
1001
ACAD
1010
657.0618427236695
1020
1011.678262926826
1030
0.0
  0
MTEXT
  5
163
102
{ACAD_XDICTIONARY
360
34E
102
}
330
1F
100
AcDbEntity
  8
1
100
AcDbMText
 10
236.8007232493543
 20
355.5345273251933
 30
0.0
 40
10.0
 41
713.4361537880867
 71
     1
 72
     5
  1
{\fVerdana|b0|i0|c0|p34;Propriet\U+00E0 A}
 73
     1
 44
1.0
1001
ACAD
1000
MTEXTBEGIN
1070
    73
1070
     1
1070
    44
1040
1.0
1070
    74
1070
     0
1000
MTEXTEND
  0
HATCH
  5
169
330
1F
100
AcDbEntity
  8
2
100
AcDbHatch
 10
0.0
 20
0.0
 30
0.0
210
0.0
220
0.0
230
1.0
  2
ANSI31
 70
     0
 71
     1
 91
        1
 92
        7
 72
     0
 73
     1
 93
        4
 10
300.0452563119754
 20
280.4163006410941
 10
300.0452563119753
 20
302.5467158965827
 10
225.5846822372806
 20
302.5467158965827
 10
225.5846822372805
 20
280.4163006410941
 97
        4
330
149
330
148
330
11B
330
14A
 75
     0
 76
     1
 52
0.0
 41
4.0
 77
     0
 78
     1
 53
45.0
 43
225.5846822372804
 44
280.4163006410939
 45
-8.98025612106915
 46
8.980256121069151
 79
     0
 47
0.5765872397235508
 98
        1
 10
265.9903899111323
 20
283.5482337902508
1001
ACAD
1010
729.1414058757835
1020
981.6782629268262
1030
0.0
  0
MTEXT
  5
16C
330
1F
100
AcDbEntity
  8
1
100
AcDbMText
 10
-23.58966300181322
 20
323.8120690051192
 30
0.0
 40
10.0
 41
98.57589984142444
 71
     1
 72
     5
  1
{\fVerdana|b0|i0|c0|p34;Mezzeria del muro comune}
 73
     1
 44
1.0
1001
ACAD
1000
MTEXTBEGIN
1070
    73
1070
     1
1070
    44
1040
1.0
1070
    74
1070
     0
1000
MTEXTEND
  0
LINE
  5
170
330
1F
100
AcDbEntity
  8
2
100
AcDbLine
 10
-31.16438024936446
 20
224.0610687509826
 30
0.0
 11
161.5803226779276
 21
224.0610687509826
 31
0.0
  0
MTEXT
  5
171
330
1F
100
AcDbEntity
  8
2
100
AcDbMText
 10
-31.62971934648425
 20
238.041668563741
 30
0.0
 40
10.0
 41
188.4592347931457
 71
     1
 72
     5
  1
{\fVerdana|b0|i0|c0|p34;Riparazione da effettuare}
 73
     1
 44
1.0
1001
ACAD
1000
MTEXTBEGIN
1070
    73
1070
     1
1070
    44
1040
1.0
1070
    74
1070
     0
1000
MTEXTEND
  0
LINE
  5
172
330
1F
100
AcDbEntity
  8
2
100
AcDbLine
 10
161.5803226779276
 20
224.0610687509826
 30
0.0
 11
247.3474948066133
 21
294.1302270924832
 31
0.0
  0
MTEXT
  5
179
102
{ACAD_XDICTIONARY
360
350
102
}
330
1F
100
AcDbEntity
  8
1
100
AcDbMText
 10
236.8007232493543
 20
274.2429093990576
 30
0.0
 40
10.0
 41
713.4361537880867
 71
     1
 72
     5
  1
{\fVerdana|b0|i0|c0|p34;Propriet\U+00E0 B}
 73
     1
 44
1.0
1001
ACAD
1000
MTEXTBEGIN
1070
    73
1070
     1
1070
    44
1040
1.0
1070
    74
1070
     0
1000
MTEXTEND
  0
MTEXT
  5
17A
102
{ACAD_XDICTIONARY
360
352
102
}
330
1F
100
AcDbEntity
  8
2
100
AcDbMText
 10
203.037737876035
 20
238.041668563741
 30
0.0
 40
10.0
 41
143.3140580565755
 71
     1
 72
     5
  1
{\fVerdana|b0|i0|c0|p34;La riparazione indicata \U+00E8 a carico di A e B in parti uguali}
 73
     1
 44
1.0
1001
ACAD
1000
MTEXTBEGIN
1070
    73
1070
     1
1070
    44
1040
1.0
1070
    74
1070
     0
1000
MTEXTEND
  0
MTEXT
  5
17B
330
1F
100
AcDbEntity
  8
2
100
AcDbMText
 10
-23.12432719505336
 20
411.7675821511006
 30
0.0
 40
10.0
 41
261.2469062572509
 71
     1
 72
     5
  1
{\fVerdana|b1|i0|c0|p34;\LArticolo 882 del Codice civile}
 73
     1
 44
1.0
1001
ACAD
1000
MTEXTBEGIN
1070
    73
1070
     1
1070
    44
1040
1.0
1070
    74
1070
     0
1000
MTEXTEND
  0
MTEXT
  5
17D
330
1F
100
AcDbEntity
  8
1
100
AcDbMText
 10
230.151829910215
 20
165.6941992063894
 30
0.0
 40
10.0
 41
98.57589984142444
 71
     1
 72
     5
  1
{\fVerdana|b0|i0|c0|p34;www.studiomirano.it}
 73
     1
 44
1.0
1001
PE_URL
1000
http://www.studiomirano.it
1002
{
1000
www.studiomirano.it
1002
{
1071
        1
1002
}
1002
}
1001
ACAD
1000
MTEXTBEGIN
1070
    73
1070
     1
1070
    44
1040
1.0
1070
    74
1070
     0
1000
MTEXTEND
  0
HATCH
  5
188
330
1F
100
AcDbEntity
  8
1
100
AcDbHatch
 10
0.0
 20
0.0
 30
0.0
210
0.0
220
0.0
230
1.0
  2
ANSI31
 70
     0
 71
     1
 91
        1
 92
        7
 72
     0
 73
     1
 93
       10
 10
59.50004465829934
 20
-10.21468050177201
 10
59.08520178454097
 20
-14.3809380025236
 10
59.54066007303477
 20
-26.80571702932929
 10
60.88899596266032
 20
-39.07508777850222
 10
61.01840185300439
 20
-40.21468050177192
 10
359.1947611699851
 20
-40.214680501772
 10
359.0653552796392
 20
-39.07508777848628
 10
357.7170193900157
 20
-26.80571702932885
 10
357.2615611015217
 20
-14.38093800252356
 10
357.6764039752802
 20
-10.21468050177201
 97
        4
330
19D
330
189
330
18E
330
18B
 75
     0
 76
     1
 52
0.0
 41
4.0
 77
     0
 78
     1
 53
45.0
 43
153.5051190851664
 44
-40.21468050177211
 45
-8.98025612106915
 46
8.980256121069151
 79
     0
 47
0.5765872397235508
 98
        1
 10
240.5922397445566
 20
-20.40807575634891
1001
ACAD
1010
657.0618427236695
1020
1011.678262926826
1030
0.0
  0
LINE
  5
189
102
{ACAD_REACTORS
330
188
102
}
330
1F
100
AcDbEntity
  8
1
100
AcDbLine
 10
59.50004465829938
 20
-10.21468050177201
 30
0.0
 11
357.6764039752802
 21
-10.21468050177201
 31
0.0
  0
HATCH
  5
18A
330
1F
100
AcDbEntity
  8
1
100
AcDbHatch
 10
0.0
 20
0.0
 30
0.0
210
0.0
220
0.0
230
1.0
  2
ANSI31
 70
     0
 71
     1
 91
        1
 92
        7
 72
     0
 73
     1
 93
       12
 10
61.01840185300432
 20
-40.2146805017719
 10
62.29144561431829
 20
-51.4255411738792
 10
62.90924518891068
 20
-64.09356813930519
 10
62.44370020330741
 20
-70.21468050177201
 10
225.5846822372806
 20
-70.21468050177201
 10
225.5846822372806
 20
-48.08426524628349
 10
300.0452563119753
 20
-48.08426524628349
 10
300.0452563119753
 20
-70.21468050177199
 10
360.6200595202882
 20
-70.21468050177199
 10
361.0856045058915
 20
-64.09356813930499
 10
360.4678049312992
 20
-51.42554117387847
 10
359.1947611699851
 20
-40.214680501772
 97
        7
330
1AD
330
1AE
330
18D
330
19D
330
18B
330
18E
330
1AC
 75
     0
 76
     1
 52
0.0
 41
4.0
 77
     0
 78
     1
 53
45.0
 43
153.5051190851664
 44
-40.21468050177211
 45
-8.98025612106915
 46
8.980256121069151
 79
     0
 47
0.5765872397235508
 98
        1
 10
188.0657922208366
 20
-53.27355052045469
1001
ACAD
1010
657.0618427236695
1020
1011.678262926826
1030
0.0
  0
LINE
  5
18B
102
{ACAD_REACTORS
330
188
330
18A
102
}
330
1F
100
AcDbEntity
  8
1
  6
TRATTOPUNTO
100
AcDbLine
 10
-38.97102835087384
 20
-40.2146805017719
 30
0.0
 11
359.1947611699849
 21
-40.214680501772
 31
0.0
  0
HATCH
  5
18C
330
1F
100
AcDbEntity
  8
2
100
AcDbHatch
 10
0.0
 20
0.0
 30
0.0
210
0.0
220
0.0
230
1.0
  2
ANSI31
 70
     0
 71
     1
 91
        1
 92
        7
 72
     0
 73
     1
 93
        4
 10
300.0452563119753
 20
-70.21468050177202
 10
300.0452563119753
 20
-48.08426524628347
 10
225.5846822372806
 20
-48.0842652462835
 10
225.5846822372805
 20
-70.21468050177199
 97
        4
330
1AD
330
1AC
330
18D
330
1AE
 75
     0
 76
     1
 52
0.0
 41
4.0
 77
     0
 78
     1
 53
45.0
 43
225.5846822372804
 44
-70.21468050177212
 45
-8.98025612106915
 46
8.980256121069151
 79
     0
 47
0.5765872397235508
 98
        1
 10
265.9903899111323
 20
-67.08274735261523
1001
ACAD
1010
729.1414058757835
1020
981.6782629268262
1030
0.0
  0
LINE
  5
18D
102
{ACAD_REACTORS
330
18A
330
18C
102
}
330
1F
100
AcDbEntity
  8
1
100
AcDbLine
 10
62.44370020330729
 20
-70.21468050177201
 30
0.0
 11
360.6200595202882
 21
-70.21468050177201
 31
0.0
  0
POLYLINE
  5
18E
102
{ACAD_REACTORS
330
188
330
18A
102
}
330
1F
100
AcDbEntity
  8
1
  6
TRATTOPUNTO
100
AcDb2dPolyline
 66
     1
 10
0.0
 20
0.0
 30
0.0
 70
   132
 75
     6
  0
VERTEX
  5
18F
330
18E
100
AcDbEntity
  8
1
  6
TRATTOPUNTO
100
AcDbVertex
100
AcDb2dVertex
 10
64.20797336734364
 20
11.88080857935246
 30
0.0
 70
    16
  0
VERTEX
  5
190
330
18E
100
AcDbEntity
  8
1
  6
TRATTOPUNTO
100
AcDbVertex
100
AcDb2dVertex
 10
64.20797336734364
 20
11.88080857935246
 30
0.0
 70
     8
  0
VERTEX
  5
191
330
18E
100
AcDbEntity
  8
1
  6
TRATTOPUNTO
100
AcDbVertex
100
AcDb2dVertex
 10
60.36138493627771
 20
-1.564259774243268
 30
0.0
 70
     8
  0
VERTEX
  5
192
330
18E
100
AcDbEntity
  8
1
  6
TRATTOPUNTO
100
AcDbVertex
100
AcDb2dVertex
 10
59.08520178454097
 20
-14.38093800252362
 30
0.0
 70
     8
  0
VERTEX
  5
193
330
18E
100
AcDbEntity
  8
1
  6
TRATTOPUNTO
100
AcDbVertex
100
AcDb2dVertex
 10
59.54066007303475
 20
-26.80571702932911
 30
0.0
 70
     8
  0
VERTEX
  5
194
330
18E
100
AcDbEntity
  8
1
  6
TRATTOPUNTO
100
AcDbVertex
100
AcDb2dVertex
 10
60.88899596266009
 20
-39.07508777850067
 30
0.0
 70
     8
  0
VERTEX
  5
195
330
18E
100
AcDbEntity
  8
1
  6
TRATTOPUNTO
100
AcDbVertex
100
AcDb2dVertex
 10
62.29144561431832
 20
-51.42554117387917
 30
0.0
 70
     8
  0
VERTEX
  5
196
330
18E
100
AcDbEntity
  8
1
  6
TRATTOPUNTO
100
AcDbVertex
100
AcDb2dVertex
 10
62.90924518891068
 20
-64.09356813930525
 30
0.0
 70
     8
  0
VERTEX
  5
197
330
18E
100
AcDbEntity
  8
1
  6
TRATTOPUNTO
100
AcDbVertex
100
AcDb2dVertex
 10
61.90363084733842
 20
-77.31565959861971
 30
0.0
 70
     8
  0
VERTEX
  5
198
330
18E
100
AcDbEntity
  8
1
  6
TRATTOPUNTO
100
AcDbVertex
100
AcDb2dVertex
 10
58.43583875050268
 20
-91.32830647566356
 30
0.0
 70
     8
  0
VERTEX
  5
199
330
18E
100
AcDbEntity
  8
1
  6
TRATTOPUNTO
100
AcDbVertex
100
AcDb2dVertex
 10
49.77762932175216
 20
-25.02077468518211
 30
0.0
 70
    16
  0
VERTEX
  5
19A
330
18E
100
AcDbEntity
  8
1
  6
TRATTOPUNTO
100
AcDbVertex
100
AcDb2dVertex
 10
71.71175587272597
 20
-52.69696009204936
 30
0.0
 70
    16
  0
VERTEX
  5
19B
330
18E
100
AcDbEntity
  8
1
  6
TRATTOPUNTO
100
AcDbVertex
100
AcDb2dVertex
 10
58.43583875050268
 20
-91.32830647566343
 30
0.0
 70
    16
  0
SEQEND
  5
19C
330
18E
100
AcDbEntity
  8
1
  6
TRATTOPUNTO
  0
POLYLINE
  5
19D
102
{ACAD_REACTORS
330
188
330
18A
102
}
330
1F
100
AcDbEntity
  8
1
  6
TRATTOPUNTO
100
AcDb2dPolyline
 66
     1
 10
0.0
 20
0.0
 30
0.0
 70
   132
 75
     6
  0
VERTEX
  5
19E
330
19D
100
AcDbEntity
  8
1
  6
TRATTOPUNTO
100
AcDbVertex
100
AcDb2dVertex
 10
362.3843326843243
 20
11.88080857935246
 30
0.0
 70
    16
  0
VERTEX
  5
19F
330
19D
100
AcDbEntity
  8
1
  6
TRATTOPUNTO
100
AcDbVertex
100
AcDb2dVertex
 10
362.3843326843243
 20
11.88080857935246
 30
0.0
 70
     8
  0
VERTEX
  5
1A0
330
19D
100
AcDbEntity
  8
1
  6
TRATTOPUNTO
100
AcDbVertex
100
AcDb2dVertex
 10
358.5377442532585
 20
-1.564259774243381
 30
0.0
 70
     8
  0
VERTEX
  5
1A1
330
19D
100
AcDbEntity
  8
1
  6
TRATTOPUNTO
100
AcDbVertex
100
AcDb2dVertex
 10
357.2615611015217
 20
-14.38093800252351
 30
0.0
 70
     8
  0
VERTEX
  5
1A2
330
19D
100
AcDbEntity
  8
1
  6
TRATTOPUNTO
100
AcDbVertex
100
AcDb2dVertex
 10
357.7170193900155
 20
-26.80571702932899
 30
0.0
 70
     8
  0
VERTEX
  5
1A3
330
19D
100
AcDbEntity
  8
1
  6
TRATTOPUNTO
100
AcDbVertex
100
AcDb2dVertex
 10
359.0653552796409
 20
-39.07508777850067
 30
0.0
 70
     8
  0
VERTEX
  5
1A4
330
19D
100
AcDbEntity
  8
1
  6
TRATTOPUNTO
100
AcDbVertex
100
AcDb2dVertex
 10
360.4678049312992
 20
-51.42554117387907
 30
0.0
 70
     8
  0
VERTEX
  5
1A5
330
19D
100
AcDbEntity
  8
1
  6
TRATTOPUNTO
100
AcDbVertex
100
AcDb2dVertex
 10
361.0856045058915
 20
-64.09356813930513
 30
0.0
 70
     8
  0
VERTEX
  5
1A6
330
19D
100
AcDbEntity
  8
1
  6
TRATTOPUNTO
100
AcDbVertex
100
AcDb2dVertex
 10
360.0799901643191
 20
-77.31565959861971
 30
0.0
 70
     8
  0
VERTEX
  5
1A7
330
19D
100
AcDbEntity
  8
1
  6
TRATTOPUNTO
100
AcDbVertex
100
AcDb2dVertex
 10
356.6121980674834
 20
-91.32830647566343
 30
0.0
 70
     8
  0
VERTEX
  5
1A8
330
19D
100
AcDbEntity
  8
1
  6
TRATTOPUNTO
100
AcDbVertex
100
AcDb2dVertex
 10
347.9539886387329
 20
-25.02077468518211
 30
0.0
 70
    16
  0
VERTEX
  5
1A9
330
19D
100
AcDbEntity
  8
1
  6
TRATTOPUNTO
100
AcDbVertex
100
AcDb2dVertex
 10
369.8881151897067
 20
-52.69696009204936
 30
0.0
 70
    16
  0
VERTEX
  5
1AA
330
19D
100
AcDbEntity
  8
1
  6
TRATTOPUNTO
100
AcDbVertex
100
AcDb2dVertex
 10
356.6121980674834
 20
-91.32830647566343
 30
0.0
 70
    16
  0
SEQEND
  5
1AB
330
19D
100
AcDbEntity
  8
1
  6
TRATTOPUNTO
  0
LINE
  5
1AC
102
{ACAD_REACTORS
330
18A
330
18C
102
}
330
1F
100
AcDbEntity
  8
2
100
AcDbLine
 10
225.5846822372806
 20
-70.21468050177222
 30
0.0
 11
225.5846822372806
 21
-48.08426524628349
 31
0.0
  0
LINE
  5
1AD
102
{ACAD_REACTORS
330
18A
330
18C
102
}
330
1F
100
AcDbEntity
  8
2
100
AcDbLine
 10
225.5846822372806
 20
-48.08426524628349
 30
0.0
 11
300.0452563119753
 21
-48.08426524628349
 31
0.0
  0
LINE
  5
1AE
102
{ACAD_REACTORS
330
18A
330
18C
102
}
330
1F
100
AcDbEntity
  8
2
100
AcDbLine
 10
300.0452563119753
 20
-48.08426524628349
 30
0.0
 11
300.0452563119754
 21
-70.21468050177212
 31
0.0
  0
MTEXT
  5
1AF
102
{ACAD_XDICTIONARY
360
354
102
}
330
1F
100
AcDbEntity
  8
1
100
AcDbMText
 10
236.8007232493543
 20
4.903546182327217
 30
0.0
 40
10.0
 41
713.4361537880867
 71
     1
 72
     5
  1
{\fVerdana|b0|i0|c0|p34;Propriet\U+00E0 A}
 73
     1
 44
1.0
1001
ACAD
1000
MTEXTBEGIN
1070
    73
1070
     1
1070
    44
1040
1.0
1070
    74
1070
     0
1000
MTEXTEND
  0
MTEXT
  5
1B0
330
1F
100
AcDbEntity
  8
1
100
AcDbMText
 10
-39.4363641576337
 20
-26.81891213774689
 30
0.0
 40
10.0
 41
98.57589984142444
 71
     1
 72
     5
  1
{\fVerdana|b0|i0|c0|p34;Mezzeria del muro comune}
 73
     1
 44
1.0
1001
ACAD
1000
MTEXTBEGIN
1070
    73
1070
     1
1070
    44
1040
1.0
1070
    74
1070
     0
1000
MTEXTEND
  0
LINE
  5
1B1
330
1F
100
AcDbEntity
  8
2
100
AcDbLine
 10
-31.16438024936446
 20
19.79943930179367
 30
0.0
 11
161.5803226779276
 21
19.79943930179367
 31
0.0
  0
MTEXT
  5
1B2
330
1F
100
AcDbEntity
  8
2
100
AcDbMText
 10
-31.62971934648425
 20
33.78003911455211
 30
0.0
 40
10.0
 41
188.4592347931457
 71
     1
 72
     5
  1
{\fVerdana|b0|i0|c0|p34;Riparazione da effettuare}
 73
     1
 44
1.0
1001
ACAD
1000
MTEXTBEGIN
1070
    73
1070
     1
1070
    44
1040
1.0
1070
    74
1070
     0
1000
MTEXTEND
  0
LINE
  5
1B3
330
1F
100
AcDbEntity
  8
2
100
AcDbLine
 10
161.5803226779276
 20
19.79943930179367
 30
0.0
 11
247.3474948066133
 21
-56.50075405038283
 31
0.0
  0
MTEXT
  5
1B4
102
{ACAD_XDICTIONARY
360
356
102
}
330
1F
100
AcDbEntity
  8
1
100
AcDbMText
 10
154.0846119669914
 20
-94.69687559366844
 30
0.0
 40
10.0
 41
713.4361537880867
 71
     1
 72
     5
  1
{\fVerdana|b0|i0|c0|p34;Propriet\U+00E0 C}
 73
     1
 44
1.0
1001
ACAD
1000
MTEXTBEGIN
1070
    73
1070
     1
1070
    44
1040
1.0
1070
    74
1070
     0
1000
MTEXTEND
  0
MTEXT
  5
1B5
102
{ACAD_XDICTIONARY
360
358
102
}
330
1F
100
AcDbEntity
  8
2
100
AcDbMText
 10
-39.4363641576337
 20
-119.0459458801639
 30
0.0
 40
10.0
 41
423.8112305691065
 71
     1
 72
     5
  1
{\fVerdana|b0|i0|c0|p34;La riparazione indicata \U+00E8 a carico di A al 50% e per il rimanente 50% \U+00E8 a carico di C per il tratto X e a carico di D per il tratto Y. B non \U+00E8 tenuto a conccorere alla riparazione}
 73
     1
 44
1.0
1001
ACAD
1000
MTEXTBEGIN
1070
    73
1070
     1
1070
    44
1040
1.0
1070
    74
1070
     0
1000
MTEXTEND
1000
ACAD_MTEXT_DEFINED_HEIGHT_BEGIN
1070
    46
1040
47.94716812178196
1000
ACAD_MTEXT_DEFINED_HEIGHT_END
  0
MTEXT
  5
1B6
330
1F
100
AcDbEntity
  8
2
100
AcDbMText
 10
-23.12432719505336
 20
61.13660100823461
 30
0.0
 40
10.0
 41
261.2469062572509
 71
     1
 72
     5
  1
{\fVerdana|b1|i0|c0|p34;\LArticolo 882 del Codice civile}
 73
     1
 44
1.0
1001
ACAD
1000
MTEXTBEGIN
1070
    73
1070
     1
1070
    44
1040
1.0
1070
    74
1070
     0
1000
MTEXTEND
  0
LINE
  5
1B8
330
1F
100
AcDbEntity
  8
1
  6
TRATTOPUNTO
100
AcDbLine
 10
146.9062843066115
 20
-40.2146805017719
 30
0.0
 11
146.9062843066115
 21
-113.1981595649305
 31
0.0
  0
MTEXT
  5
1B9
102
{ACAD_XDICTIONARY
360
35A
102
}
330
1F
100
AcDbEntity
  8
1
100
AcDbMText
 10
67.1089853296599
 20
-94.69687559366844
 30
0.0
 40
10.0
 41
713.4361537880867
 71
     1
 72
     5
  1
{\fVerdana|b0|i0|c0|p34;Propriet\U+00E0 B}
 73
     1
 44
1.0
1001
ACAD
1000
MTEXTBEGIN
1070
    73
1070
     1
1070
    44
1040
1.0
1070
    74
1070
     0
1000
MTEXTEND
  0
LINE
  5
1BA
330
1F
100
AcDbEntity
  8
1
  6
TRATTOPUNTO
100
AcDbLine
 10
245.7669335204481
 20
-40.2146805017719
 30
0.0
 11
245.7669335204481
 21
-113.1981595649305
 31
0.0
  0
MTEXT
  5
1BB
102
{ACAD_XDICTIONARY
360
35C
102
}
330
1F
100
AcDbEntity
  8
1
100
AcDbMText
 10
269.1544053242147
 20
-94.69687559366844
 30
0.0
 40
10.0
 41
713.4361537880867
 71
     1
 72
     5
  1
{\fVerdana|b0|i0|c0|p34;Propriet\U+00E0 D}
 73
     1
 44
1.0
1001
ACAD
1000
MTEXTBEGIN
1070
    73
1070
     1
1070
    44
1040
1.0
1070
    74
1070
     0
1000
MTEXTEND
  0
LINE
  5
1BC
330
1F
100
AcDbEntity
  8
2
100
AcDbLine
 10
218.5627915662222
 20
-86.91827796178982
 30
0.0
 11
307.4191647523704
 21
-86.91827796178982
 31
0.0
  0
LINE
  5
1BD
330
1F
100
AcDbEntity
  8
2
100
AcDbLine
 10
225.5846822372806
 20
-75.18042833427749
 30
0.0
 11
225.5846822372806
 21
-90.96956015377314
 31
0.0
  0
LINE
  5
1BE
330
1F
100
AcDbEntity
  8
2
100
AcDbLine
 10
300.0452563119754
 20
-75.18042833427736
 30
0.0
 11
300.0452563119754
 21
-90.96956015377305
 31
0.0
  0
MTEXT
  5
1BF
330
1F
100
AcDbEntity
  8
2
100
AcDbMText
 10
230.442405920579
 20
-76.13858070977606
 30
0.0
 40
10.0
 41
713.4361537880867
 71
     1
 72
     5
  1
{\fVerdana|b0|i0|c0|p34;X}
 73
     1
 44
1.0
1001
ACAD
1000
MTEXTBEGIN
1070
    73
1070
     1
1070
    44
1040
1.0
1070
    74
1070
     0
1000
MTEXTEND
  0
MTEXT
  5
1C0
330
1F
100
AcDbEntity
  8
2
100
AcDbMText
 10
264.6555788208567
 20
-76.13858070977606
 30
0.0
 40
10.0
 41
713.4361537880867
 71
     1
 72
     5
  1
{\fVerdana|b0|i0|c0|p34;Y}
 73
     1
 44
1.0
1001
ACAD
1000
MTEXTBEGIN
1070
    73
1070
     1
1070
    44
1040
1.0
1070
    74
1070
     0
1000
MTEXTEND
  0
LINE
  5
1C2
330
1F
100
AcDbEntity
  8
2
100
AcDbLine
 10
303.6637019537038
 20
-82.63817748435984
 30
0.0
 11
296.4268106702471
 21
-91.19837843921979
 31
0.0
  0
LINE
  5
1C3
330
1F
100
AcDbEntity
  8
2
100
AcDbLine
 10
229.2031278790089
 20
-82.63817748435984
 30
0.0
 11
221.9662365955523
 21
-91.19837843921979
 31
0.0
  0
LINE
  5
1C5
330
1F
100
AcDbEntity
  8
1
100
AcDbLine
 10
245.7669335204481
 20
-75.18042833427749
 30
0.0
 11
245.7669335204481
 21
-90.96956015377314
 31
0.0
  0
LINE
  5
1C6
330
1F
100
AcDbEntity
  8
1
100
AcDbLine
 10
249.3853791621764
 20
-82.63817748435984
 30
0.0
 11
242.1484878787198
 21
-91.19837843921979
 31
0.0
  0
MTEXT
  5
1F7
102
{ACAD_XDICTIONARY
360
35E
102
}
330
1F
100
AcDbEntity
  8
1
100
AcDbMText
 10
501.0020006408181
 20
222.1568939811836
 30
0.0
 40
10.0
 41
713.4361537880867
 71
     1
 72
     5
  1
{\fVerdana|b0|i0|c0|p34;Propriet\U+00E0 A}
 11
0.0000000000000001
 21
1.0
 31
0.0
 73
     1
 44
1.0
1001
ACAD
1000
MTEXTBEGIN
1070
    73
1070
     1
1070
    44
1040
1.0
1070
    74
1070
     0
1000
MTEXTEND
  0
MTEXT
  5
1FD
330
1F
100
AcDbEntity
  8
2
100
AcDbMText
 10
624.8643208442086
 20
361.7484817416663
 30
0.0
 40
10.0
 41
240.1072619348834
 71
     1
 72
     5
  1
{\fVerdana|b0|i0|c0|p34;In questo caso, visto il doppio piovente, il muro si ritiene comune}
 73
     1
 44
1.0
1001
ACAD
1000
MTEXTBEGIN
1070
    73
1070
     1
1070
    44
1040
1.0
1070
    74
1070
     0
1000
MTEXTEND
1000
ACAD_MTEXT_DEFINED_HEIGHT_BEGIN
1070
    46
1040
47.94716812178196
1000
ACAD_MTEXT_DEFINED_HEIGHT_END
  0
MTEXT
  5
1FE
330
1F
100
AcDbEntity
  8
2
100
AcDbMText
 10
480.4323964434496
 20
411.7675821511008
 30
0.0
 40
10.0
 41
261.2469062572509
 71
     1
 72
     5
  1
{\fVerdana|b1|i0|c0|p34;\LArticolo 881 del Codice civile}
 73
     1
 44
1.0
1001
ACAD
1000
MTEXTBEGIN
1070
    73
1070
     1
1070
    44
1040
1.0
1070
    74
1070
     0
1000
MTEXTEND
  0
LINE
  5
20D
102
{ACAD_REACTORS
330
2F1
102
}
330
1F
100
AcDbEntity
  8
1
100
AcDbLine
 10
519.5941797947281
 20
202.4334646126866
 30
0.0
 11
519.5941797947281
 21
364.0796991302395
 31
0.0
  0
LINE
  5
20E
102
{ACAD_REACTORS
330
2F1
102
}
330
1F
100
AcDbEntity
  8
1
100
AcDbLine
 10
519.5941797947281
 20
364.0796991302395
 30
0.0
 11
535.3164476191814
 21
378.6110828331979
 31
0.0
  0
LINE
  5
20F
102
{ACAD_REACTORS
330
2F1
102
}
330
1F
100
AcDbEntity
  8
1
100
AcDbLine
 10
551.0387154436346
 20
202.4334646126866
 30
0.0
 11
551.0387154436346
 21
364.0796991302395
 31
0.0
  0
LINE
  5
210
102
{ACAD_REACTORS
330
2F1
102
}
330
1F
100
AcDbEntity
  8
1
100
AcDbLine
 10
551.0387154436346
 20
364.0796991302395
 30
0.0
 11
535.3164476191814
 21
378.6110828331979
 31
0.0
  0
MTEXT
  5
211
102
{ACAD_XDICTIONARY
360
360
102
}
330
1F
100
AcDbEntity
  8
1
100
AcDbMText
 10
555.3035712001022
 20
222.1568939811836
 30
0.0
 40
10.0
 41
713.4361537880867
 71
     1
 72
     5
  1
{\fVerdana|b0|i0|c0|p34;Propriet\U+00E0 B}
 11
0.0000000000000001
 21
1.0
 31
0.0
 73
     1
 44
1.0
1001
ACAD
1000
MTEXTBEGIN
1070
    73
1070
     1
1070
    44
1040
1.0
1070
    74
1070
     0
1000
MTEXTEND
  0
LINE
  5
212
102
{ACAD_REACTORS
330
2F1
102
}
330
1F
100
AcDbEntity
  8
1
100
AcDbLine
 10
519.5941797947281
 20
202.4334646126866
 30
0.0
 11
512.3215359627956
 21
202.4334646126866
 31
0.0
  0
LINE
  5
213
102
{ACAD_REACTORS
330
2F1
102
}
330
1F
100
AcDbEntity
  8
1
100
AcDbLine
 10
512.3215359627956
 20
202.4334646126866
 30
0.0
 11
512.3215359627956
 21
180.3014206355845
 31
0.0
  0
LINE
  5
214
102
{ACAD_REACTORS
330
2F1
102
}
330
1F
100
AcDbEntity
  8
1
100
AcDbLine
 10
551.0387154436346
 20
202.4334646126866
 30
0.0
 11
558.311359275567
 21
202.4334646126866
 31
0.0
  0
LINE
  5
215
102
{ACAD_REACTORS
330
2F1
102
}
330
1F
100
AcDbEntity
  8
1
100
AcDbLine
 10
558.311359275567
 20
202.4334646126866
 30
0.0
 11
558.3113592755668
 21
182.9735688367373
 31
0.0
  0
LINE
  5
225
330
1F
100
AcDbEntity
  8
1
100
AcDbLine
 10
496.5426485085369
 20
212.364325736509
 30
0.0
 11
519.5941797947281
 21
212.364325736509
 31
0.0
  0
POLYLINE
  5
24D
102
{ACAD_REACTORS
330
2F1
102
}
330
1F
100
AcDbEntity
  8
1
  6
TRATTOPUNTO
100
AcDb2dPolyline
 66
     1
 10
0.0
 20
0.0
 30
0.0
 70
   128
  0
VERTEX
  5
24E
330
24D
100
AcDbEntity
  8
1
  6
TRATTOPUNTO
100
AcDbVertex
100
AcDb2dVertex
 10
574.0902467298259
 20
177.9664738655231
 30
0.0
  0
VERTEX
  5
24F
330
24D
100
AcDbEntity
  8
1
  6
TRATTOPUNTO
100
AcDbVertex
100
AcDb2dVertex
 10
571.6101877465306
 20
178.9251033802309
 30
0.0
  0
VERTEX
  5
250
330
24D
100
AcDbEntity
  8
1
  6
TRATTOPUNTO
100
AcDbVertex
100
AcDb2dVertex
 10
568.5625091868558
 20
180.0385230181793
 30
0.0
  0
VERTEX
  5
251
330
24D
100
AcDbEntity
  8
1
  6
TRATTOPUNTO
100
AcDbVertex
100
AcDb2dVertex
 10
565.0499215879423
 20
181.1993906766588
 30
0.0
  0
VERTEX
  5
252
330
24D
100
AcDbEntity
  8
1
  6
TRATTOPUNTO
100
AcDbVertex
100
AcDb2dVertex
 10
561.17513548693
 20
182.3003642529601
 30
0.0
  0
VERTEX
  5
253
330
24D
100
AcDbEntity
  8
1
  6
TRATTOPUNTO
100
AcDbVertex
100
AcDb2dVertex
 10
557.0408614209591
 20
183.2341016443739
 30
0.0
  0
VERTEX
  5
254
330
24D
100
AcDbEntity
  8
1
  6
TRATTOPUNTO
100
AcDbVertex
100
AcDb2dVertex
 10
552.7498099271698
 20
183.8932607481909
 30
0.0
  0
VERTEX
  5
255
330
24D
100
AcDbEntity
  8
1
  6
TRATTOPUNTO
100
AcDbVertex
100
AcDb2dVertex
 10
548.4046915427025
 20
184.1704994617016
 30
0.0
  0
VERTEX
  5
256
330
24D
100
AcDbEntity
  8
1
  6
TRATTOPUNTO
100
AcDbVertex
100
AcDb2dVertex
 10
544.1082168046973
 20
183.9584756821968
 30
0.0
  0
VERTEX
  5
257
330
24D
100
AcDbEntity
  8
1
  6
TRATTOPUNTO
100
AcDbVertex
100
AcDb2dVertex
 10
539.9089275887636
 20
183.213311619592
 30
0.0
  0
VERTEX
  5
258
330
24D
100
AcDbEntity
  8
1
  6
TRATTOPUNTO
100
AcDbVertex
100
AcDb2dVertex
 10
535.6386911243864
 20
182.144986734303
 30
0.0
  0
VERTEX
  5
259
330
24D
100
AcDbEntity
  8
1
  6
TRATTOPUNTO
100
AcDbVertex
100
AcDb2dVertex
 10
531.0752059795207
 20
181.0269447993702
 30
0.0
  0
VERTEX
  5
25A
330
24D
100
AcDbEntity
  8
1
  6
TRATTOPUNTO
100
AcDbVertex
100
AcDb2dVertex
 10
525.9961707221209
 20
180.1326295878342
 30
0.0
  0
VERTEX
  5
25B
330
24D
100
AcDbEntity
  8
1
  6
TRATTOPUNTO
100
AcDbVertex
100
AcDb2dVertex
 10
520.1792839201411
 20
179.7354848727357
 30
0.0
  0
VERTEX
  5
25C
330
24D
100
AcDbEntity
  8
1
  6
TRATTOPUNTO
100
AcDbVertex
100
AcDb2dVertex
 10
513.4022441415363
 20
180.1089544271152
 30
0.0
  0
VERTEX
  5
25D
330
24D
100
AcDbEntity
  8
1
  6
TRATTOPUNTO
100
AcDbVertex
100
AcDb2dVertex
 10
505.4427499542606
 20
181.5264820240131
 30
0.0
  0
VERTEX
  5
25E
330
24D
100
AcDbEntity
  8
1
  6
TRATTOPUNTO
100
AcDbVertex
100
AcDb2dVertex
 10
496.5426485085369
 20
184.1259469203095
 30
0.0
  0
SEQEND
  5
25F
330
24D
100
AcDbEntity
  8
1
  6
TRATTOPUNTO
  0
HATCH
  5
27F
330
1F
100
AcDbEntity
  8
1
100
AcDbHatch
 10
0.0
 20
0.0
 30
0.0
210
0.0
220
0.0
230
1.0
  2
EARTH
 70
     0
 71
     0
 91
        1
 92
        7
 72
     0
 73
     1
 93
       10
 10
574.0902467298259
 20
212.364325736509
 10
551.0387154436346
 20
212.364325736509
 10
551.0387154436346
 20
202.4334646126866
 10
558.311359275567
 20
202.4334646126866
 10
558.311359275567
 20
182.9471561410936
 10
561.1751354869296
 20
182.3003642529601
 10
565.049921587942
 20
181.1993906766592
 10
568.5625091868572
 20
180.0385230181788
 10
571.6101877465322
 20
178.9251033802299
 10
574.0902467298259
 20
177.9664738655231
 97
        0
 75
     0
 76
     1
 52
45.0
 41
1.049999999999998
 77
     0
 78
     6
 53
45.0
 43
496.5426485085366
 44
177.9664738655231
 45
0.0000000000000006
 46
9.429268927122606
 79
     2
 49
6.667499999999997
 49
-6.667499999999997
 53
45.0
 43
494.7746605847012
 44
179.7344617893586
 45
0.0000000000000006
 46
9.429268927122606
 79
     2
 49
6.667499999999997
 49
-6.667499999999997
 53
45.0
 43
493.0066726608655
 44
181.502449713194
 45
0.0000000000000006
 46
9.429268927122606
 79
     2
 49
6.667499999999997
 49
-6.667499999999997
 53
135.0
 43
493.0066726608655
 44
182.6811083290844
 45
-9.429268927122606
 46
0.0000000000000006
 79
     2
 49
6.667499999999997
 49
-6.667499999999997
 53
135.0
 43
494.7746605847012
 44
184.4490962529199
 45
-9.429268927122606
 46
0.0000000000000006
 79
     2
 49
6.667499999999997
 49
-6.667499999999997
 53
135.0
 43
496.5426485085366
 44
186.2170841767554
 45
-9.429268927122606
 46
0.0000000000000006
 79
     2
 49
6.667499999999997
 49
-6.667499999999997
 47
0.7765852926972907
 98
        2
 10
510.1562979348868
 20
202.7744134307762
 10
562.3995318935483
 20
202.2308030316587
1001
ACAD
1010
879.0739889342011
1020
144.7037172072661
1030
0.0
  0
HATCH
  5
287
330
1F
100
AcDbEntity
  8
1
100
AcDbHatch
 10
0.0
 20
0.0
 30
0.0
210
0.0
220
0.0
230
1.0
  2
EARTH
 70
     0
 71
     0
 91
        1
 92
        7
 72
     0
 73
     1
 93
        7
 10
512.3215359627956
 20
202.4334646126866
 10
519.5941797947281
 20
202.4334646126866
 10
519.5941797947281
 20
212.364325736509
 10
496.5426485085369
 20
212.364325736509
 10
496.5426485085366
 20
184.1259469203095
 10
505.4427499542606
 20
181.5264820240131
 10
512.3215359627956
 20
180.3014206355845
 97
        0
 75
     0
 76
     1
 52
45.0
 41
1.049999999999998
 77
     0
 78
     6
 53
45.0
 43
496.5426485085366
 44
180.3014206355845
 45
0.0000000000000006
 46
9.429268927122606
 79
     2
 49
6.667499999999997
 49
-6.667499999999997
 53
45.0
 43
494.7746605847012
 44
182.0694085594199
 45
0.0000000000000006
 46
9.429268927122606
 79
     2
 49
6.667499999999997
 49
-6.667499999999997
 53
45.0
 43
493.0066726608655
 44
183.8373964832554
 45
0.0000000000000006
 46
9.429268927122606
 79
     2
 49
6.667499999999997
 49
-6.667499999999997
 53
135.0
 43
493.0066726608655
 44
185.0160550991457
 45
-9.429268927122606
 46
0.0000000000000006
 79
     2
 49
6.667499999999997
 49
-6.667499999999997
 53
135.0
 43
494.7746605847012
 44
186.7840430229812
 45
-9.429268927122606
 46
0.0000000000000006
 79
     2
 49
6.667499999999997
 49
-6.667499999999997
 53
135.0
 43
496.5426485085366
 44
188.5520309468166
 45
-9.429268927122606
 46
0.0000000000000006
 79
     2
 49
6.667499999999997
 49
-6.667499999999997
 47
0.3053100617967973
 98
        1
 10
509.6443236790471
 20
197.836647748616
1001
ACAD
1010
879.0739889342015
1020
148.0393554502109
1030
0.0
  0
LWPOLYLINE
  5
288
330
1F
100
AcDbEntity
  8
2
100
AcDbPolyline
 90
        4
 70
     1
 43
0.0
 10
-50.10571887396912
 20
420.7516183744111
 10
379.2438254502286
 20
420.7516183744111
 10
379.2438254502286
 20
144.3278165458504
 10
-50.10571887396912
 20
144.3278165458504
  0
LWPOLYLINE
  5
289
330
1F
100
AcDbEntity
  8
2
100
AcDbPolyline
 90
        4
 70
     1
 43
0.0
 10
-55.10571887396912
 20
425.7516183744112
 10
384.2438254502287
 20
425.7516183744112
 10
384.2438254502287
 20
139.3278165458504
 10
-55.10571887396912
 20
139.3278165458504
  0
LWPOLYLINE
  5
28B
330
1F
100
AcDbEntity
  8
2
100
AcDbPolyline
 90
        4
 70
     1
 43
0.0
 10
-50.10571887396912
 20
70.12063723154508
 10
379.2438254502286
 20
70.12063723154508
 10
379.2438254502286
 20
-206.3031645970158
 10
-50.10571887396912
 20
-206.3031645970158
  0
LWPOLYLINE
  5
28C
330
1F
100
AcDbEntity
  8
2
100
AcDbPolyline
 90
        4
 70
     1
 43
0.0
 10
-55.10571887396912
 20
75.12063723154508
 10
384.2438254502287
 20
75.12063723154508
 10
384.2438254502287
 20
-211.3031645970158
 10
-55.10571887396912
 20
-211.3031645970158
  0
LWPOLYLINE
  5
28E
330
1F
100
AcDbEntity
  8
2
100
AcDbPolyline
 90
        4
 70
     1
 43
0.0
 10
453.451004764534
 20
420.7516183744113
 10
882.8005490887317
 20
420.7516183744113
 10
882.8005490887317
 20
144.3278165458504
 10
453.451004764534
 20
144.3278165458504
  0
LWPOLYLINE
  5
28F
330
1F
100
AcDbEntity
  8
2
100
AcDbPolyline
 90
        4
 70
     1
 43
0.0
 10
448.451004764534
 20
425.7516183744113
 10
887.8005490887316
 20
425.7516183744113
 10
887.8005490887316
 20
139.3278165458504
 10
448.451004764534
 20
139.3278165458504
  0
MTEXT
  5
291
102
{ACAD_XDICTIONARY
360
362
102
}
330
1F
100
AcDbEntity
  8
2
100
AcDbMText
 10
624.8643208442086
 20
11.11750059880012
 30
0.0
 40
10.0
 41
240.1072619348834
 71
     1
 72
     5
  1
{\fVerdana|b0|i0|c0|p34;In questo caso il muro si presume di A, poich\U+00E8 il piovente \U+00E8 dal suo lato}
 73
     1
 44
1.0
1001
ACAD
1000
MTEXTBEGIN
1070
    73
1070
     1
1070
    44
1040
1.0
1070
    74
1070
     0
1000
MTEXTEND
1000
ACAD_MTEXT_DEFINED_HEIGHT_BEGIN
1070
    46
1040
47.94716812178196
1000
ACAD_MTEXT_DEFINED_HEIGHT_END
  0
MTEXT
  5
292
330
1F
100
AcDbEntity
  8
2
100
AcDbMText
 10
480.4323964434496
 20
61.13660100823461
 30
0.0
 40
10.0
 41
261.2469062572509
 71
     1
 72
     5
  1
{\fVerdana|b1|i0|c0|p34;\LArticolo 881 del Codice civile}
 73
     1
 44
1.0
1001
ACAD
1000
MTEXTBEGIN
1070
    73
1070
     1
1070
    44
1040
1.0
1070
    74
1070
     0
1000
MTEXTEND
  0
LWPOLYLINE
  5
2B3
330
1F
100
AcDbEntity
  8
2
100
AcDbPolyline
 90
        4
 70
     1
 43
0.0
 10
453.451004764534
 20
70.12063723154506
 10
882.8005490887317
 20
70.12063723154506
 10
882.8005490887317
 20
-206.3031645970158
 10
453.451004764534
 20
-206.3031645970158
  0
LWPOLYLINE
  5
2B4
330
1F
100
AcDbEntity
  8
2
100
AcDbPolyline
 90
        4
 70
     1
 43
0.0
 10
448.451004764534
 20
75.12063723154506
 10
887.8005490887316
 20
75.12063723154506
 10
887.8005490887316
 20
-211.3031645970158
 10
448.451004764534
 20
-211.3031645970158
  0
LINE
  5
2B6
330
1F
100
AcDbEntity
  8
1
100
AcDbLine
 10
551.0387154436346
 20
212.364325736509
 30
0.0
 11
574.0902467298259
 21
212.364325736509
 31
0.0
  0
MTEXT
  5
2BC
102
{ACAD_XDICTIONARY
360
364
102
}
330
1F
100
AcDbEntity
  8
1
100
AcDbMText
 10
501.0020006408181
 20
-128.4740871616826
 30
0.0
 40
10.0
 41
713.4361537880867
 71
     1
 72
     5
  1
{\fVerdana|b0|i0|c0|p34;Propriet\U+00E0 A}
 11
0.0000000000000001
 21
1.0
 31
0.0
 73
     1
 44
1.0
1001
ACAD
1000
MTEXTBEGIN
1070
    73
1070
     1
1070
    44
1040
1.0
1070
    74
1070
     0
1000
MTEXTEND
  0
HATCH
  5
2BD
330
1F
100
AcDbEntity
  8
1
100
AcDbHatch
 10
0.0
 20
0.0
 30
0.0
210
0.0
220
0.0
230
1.0
  2
EARTH
 70
     0
 71
     0
 91
        1
 92
        7
 72
     0
 73
     1
 93
        7
 10
512.3215359627956
 20
-148.1975165301796
 10
519.5941797947281
 20
-148.1975165301796
 10
519.5941797947281
 20
-138.2666554063572
 10
496.5426485085369
 20
-138.2666554063572
 10
496.5426485085366
 20
-166.5050342225566
 10
505.4427499542606
 20
-169.1044991188531
 10
512.3215359627956
 20
-170.3295605072817
 97
        0
 75
     0
 76
     1
 52
45.0
 41
1.049999999999998
 77
     0
 78
     6
 53
45.0
 43
496.5426485085366
 44
-170.3295605072817
 45
0.0000000000000006
 46
9.429268927122606
 79
     2
 49
6.667499999999997
 49
-6.667499999999997
 53
45.0
 43
494.7746605847012
 44
-168.5615725834463
 45
0.0000000000000006
 46
9.429268927122606
 79
     2
 49
6.667499999999997
 49
-6.667499999999997
 53
45.0
 43
493.0066726608655
 44
-166.7935846596108
 45
0.0000000000000006
 46
9.429268927122606
 79
     2
 49
6.667499999999997
 49
-6.667499999999997
 53
135.0
 43
493.0066726608655
 44
-165.6149260437205
 45
-9.429268927122606
 46
0.0000000000000006
 79
     2
 49
6.667499999999997
 49
-6.667499999999997
 53
135.0
 43
494.7746605847012
 44
-163.846938119885
 45
-9.429268927122606
 46
0.0000000000000006
 79
     2
 49
6.667499999999997
 49
-6.667499999999997
 53
135.0
 43
496.5426485085366
 44
-162.0789501960495
 45
-9.429268927122606
 46
0.0000000000000006
 79
     2
 49
6.667499999999997
 49
-6.667499999999997
 47
0.3053100617967973
 98
        1
 10
509.6443236790471
 20
-152.7943333942501
1001
ACAD
1010
879.0739889342015
1020
148.0393554502109
1030
0.0
  0
LINE
  5
2BE
102
{ACAD_REACTORS
330
304
102
}
330
1F
100
AcDbEntity
  8
1
100
AcDbLine
 10
519.5941797947281
 20
-148.1975165301796
 30
0.0
 11
519.5941797947281
 21
1.149641456338541
 31
0.0
  0
HATCH
  5
2C0
330
1F
100
AcDbEntity
  8
1
100
AcDbHatch
 10
0.0
 20
0.0
 30
0.0
210
0.0
220
0.0
230
1.0
  2
EARTH
 70
     0
 71
     0
 91
        1
 92
        7
 72
     0
 73
     1
 93
       10
 10
574.0902467298259
 20
-138.2666554063572
 10
551.0387154436346
 20
-138.2666554063572
 10
551.0387154436346
 20
-148.1975165301796
 10
558.311359275567
 20
-148.1975165301796
 10
558.311359275567
 20
-167.6838250017725
 10
561.1751354869296
 20
-168.3306168899061
 10
565.049921587942
 20
-169.431590466207
 10
568.5625091868572
 20
-170.5924581246874
 10
571.6101877465322
 20
-171.7058777626363
 10
574.0902467298259
 20
-172.6645072773431
 97
        0
 75
     0
 76
     1
 52
45.0
 41
1.049999999999998
 77
     0
 78
     6
 53
45.0
 43
496.5426485085366
 44
-172.6645072773431
 45
0.0000000000000006
 46
9.429268927122606
 79
     2
 49
6.667499999999997
 49
-6.667499999999997
 53
45.0
 43
494.7746605847012
 44
-170.8965193535076
 45
0.0000000000000006
 46
9.429268927122606
 79
     2
 49
6.667499999999997
 49
-6.667499999999997
 53
45.0
 43
493.0066726608655
 44
-169.128531429672
 45
0.0000000000000006
 46
9.429268927122606
 79
     2
 49
6.667499999999997
 49
-6.667499999999997
 53
135.0
 43
493.0066726608655
 44
-167.9498728137818
 45
-9.429268927122606
 46
0.0000000000000006
 79
     2
 49
6.667499999999997
 49
-6.667499999999997
 53
135.0
 43
494.7746605847012
 44
-166.1818848899463
 45
-9.429268927122606
 46
0.0000000000000006
 79
     2
 49
6.667499999999997
 49
-6.667499999999997
 53
135.0
 43
496.5426485085366
 44
-164.4138969661108
 45
-9.429268927122606
 46
0.0000000000000006
 79
     2
 49
6.667499999999997
 49
-6.667499999999997
 47
0.7765852926972907
 98
        2
 10
510.1562979348868
 20
-147.85656771209
 10
562.3995318935483
 20
-148.4001781112075
1001
ACAD
1010
879.0739889342011
1020
144.7037172072661
1030
0.0
  0
LINE
  5
2C1
102
{ACAD_REACTORS
330
304
102
}
330
1F
100
AcDbEntity
  8
1
100
AcDbLine
 10
551.0387154436346
 20
-148.1975165301796
 30
0.0
 11
551.0387154436346
 21
22.03486600088519
 31
0.0
  0
MTEXT
  5
2C3
102
{ACAD_XDICTIONARY
360
366
102
}
330
1F
100
AcDbEntity
  8
1
100
AcDbMText
 10
555.3035712001022
 20
-128.4740871616826
 30
0.0
 40
10.0
 41
713.4361537880867
 71
     1
 72
     5
  1
{\fVerdana|b0|i0|c0|p34;Propriet\U+00E0 B}
 11
0.0000000000000001
 21
1.0
 31
0.0
 73
     1
 44
1.0
1001
ACAD
1000
MTEXTBEGIN
1070
    73
1070
     1
1070
    44
1040
1.0
1070
    74
1070
     0
1000
MTEXTEND
  0
LINE
  5
2C4
102
{ACAD_REACTORS
330
304
102
}
330
1F
100
AcDbEntity
  8
1
100
AcDbLine
 10
519.5941797947281
 20
-148.1975165301796
 30
0.0
 11
512.3215359627956
 21
-148.1975165301796
 31
0.0
  0
LINE
  5
2C5
102
{ACAD_REACTORS
330
304
102
}
330
1F
100
AcDbEntity
  8
1
100
AcDbLine
 10
512.3215359627956
 20
-148.1975165301796
 30
0.0
 11
512.3215359627956
 21
-170.3295605072817
 31
0.0
  0
LINE
  5
2C6
102
{ACAD_REACTORS
330
304
102
}
330
1F
100
AcDbEntity
  8
1
100
AcDbLine
 10
551.0387154436346
 20
-148.1975165301796
 30
0.0
 11
558.311359275567
 21
-148.1975165301796
 31
0.0
  0
LINE
  5
2C7
102
{ACAD_REACTORS
330
304
102
}
330
1F
100
AcDbEntity
  8
1
100
AcDbLine
 10
558.311359275567
 20
-148.1975165301796
 30
0.0
 11
558.3113592755668
 21
-167.6574123061289
 31
0.0
  0
POLYLINE
  5
2C8
102
{ACAD_REACTORS
330
304
102
}
330
1F
100
AcDbEntity
  8
1
  6
TRATTOPUNTO
100
AcDb2dPolyline
 66
     1
 10
0.0
 20
0.0
 30
0.0
 70
   128
  0
VERTEX
  5
2C9
330
2C8
100
AcDbEntity
  8
1
  6
TRATTOPUNTO
100
AcDbVertex
100
AcDb2dVertex
 10
574.0902467298259
 20
-172.6645072773431
 30
0.0
  0
VERTEX
  5
2CA
330
2C8
100
AcDbEntity
  8
1
  6
TRATTOPUNTO
100
AcDbVertex
100
AcDb2dVertex
 10
571.6101877465306
 20
-171.7058777626353
 30
0.0
  0
VERTEX
  5
2CB
330
2C8
100
AcDbEntity
  8
1
  6
TRATTOPUNTO
100
AcDbVertex
100
AcDb2dVertex
 10
568.5625091868558
 20
-170.5924581246869
 30
0.0
  0
VERTEX
  5
2CC
330
2C8
100
AcDbEntity
  8
1
  6
TRATTOPUNTO
100
AcDbVertex
100
AcDb2dVertex
 10
565.0499215879423
 20
-169.4315904662074
 30
0.0
  0
VERTEX
  5
2CD
330
2C8
100
AcDbEntity
  8
1
  6
TRATTOPUNTO
100
AcDbVertex
100
AcDb2dVertex
 10
561.17513548693
 20
-168.3306168899061
 30
0.0
  0
VERTEX
  5
2CE
330
2C8
100
AcDbEntity
  8
1
  6
TRATTOPUNTO
100
AcDbVertex
100
AcDb2dVertex
 10
557.0408614209591
 20
-167.3968794984923
 30
0.0
  0
VERTEX
  5
2CF
330
2C8
100
AcDbEntity
  8
1
  6
TRATTOPUNTO
100
AcDbVertex
100
AcDb2dVertex
 10
552.7498099271698
 20
-166.7377203946753
 30
0.0
  0
VERTEX
  5
2D0
330
2C8
100
AcDbEntity
  8
1
  6
TRATTOPUNTO
100
AcDbVertex
100
AcDb2dVertex
 10
548.4046915427025
 20
-166.4604816811646
 30
0.0
  0
VERTEX
  5
2D1
330
2C8
100
AcDbEntity
  8
1
  6
TRATTOPUNTO
100
AcDbVertex
100
AcDb2dVertex
 10
544.1082168046973
 20
-166.6725054606694
 30
0.0
  0
VERTEX
  5
2D2
330
2C8
100
AcDbEntity
  8
1
  6
TRATTOPUNTO
100
AcDbVertex
100
AcDb2dVertex
 10
539.9089275887636
 20
-167.4176695232742
 30
0.0
  0
VERTEX
  5
2D3
330
2C8
100
AcDbEntity
  8
1
  6
TRATTOPUNTO
100
AcDbVertex
100
AcDb2dVertex
 10
535.6386911243864
 20
-168.4859944085632
 30
0.0
  0
VERTEX
  5
2D4
330
2C8
100
AcDbEntity
  8
1
  6
TRATTOPUNTO
100
AcDbVertex
100
AcDb2dVertex
 10
531.0752059795207
 20
-169.604036343496
 30
0.0
  0
VERTEX
  5
2D5
330
2C8
100
AcDbEntity
  8
1
  6
TRATTOPUNTO
100
AcDbVertex
100
AcDb2dVertex
 10
525.9961707221209
 20
-170.498351555032
 30
0.0
  0
VERTEX
  5
2D6
330
2C8
100
AcDbEntity
  8
1
  6
TRATTOPUNTO
100
AcDbVertex
100
AcDb2dVertex
 10
520.1792839201411
 20
-170.8954962701305
 30
0.0
  0
VERTEX
  5
2D7
330
2C8
100
AcDbEntity
  8
1
  6
TRATTOPUNTO
100
AcDbVertex
100
AcDb2dVertex
 10
513.4022441415363
 20
-170.522026715751
 30
0.0
  0
VERTEX
  5
2D8
330
2C8
100
AcDbEntity
  8
1
  6
TRATTOPUNTO
100
AcDbVertex
100
AcDb2dVertex
 10
505.4427499542606
 20
-169.104499118853
 30
0.0
  0
VERTEX
  5
2D9
330
2C8
100
AcDbEntity
  8
1
  6
TRATTOPUNTO
100
AcDbVertex
100
AcDb2dVertex
 10
496.5426485085369
 20
-166.5050342225566
 30
0.0
  0
SEQEND
  5
2DA
330
2C8
100
AcDbEntity
  8
1
  6
TRATTOPUNTO
  0
LINE
  5
2DB
330
1F
100
AcDbEntity
  8
1
100
AcDbLine
 10
496.5426485085369
 20
-138.2666554063572
 30
0.0
 11
519.5941797947281
 21
-138.2666554063572
 31
0.0
  0
LINE
  5
2DC
330
1F
100
AcDbEntity
  8
1
100
AcDbLine
 10
551.0387154436346
 20
-138.2666554063572
 30
0.0
 11
574.0902467298259
 21
-138.2666554063572
 31
0.0
  0
LINE
  5
2DD
102
{ACAD_REACTORS
330
304
102
}
330
1F
100
AcDbEntity
  8
1
100
AcDbLine
 10
551.0387154436346
 20
22.03486600088519
 30
0.0
 11
519.5941797947281
 21
1.149641456338541
 31
0.0
  0
HATCH
  5
2F1
330
1F
100
AcDbEntity
  8
1
100
AcDbHatch
 10
0.0
 20
0.0
 30
0.0
210
0.0
220
0.0
230
1.0
  2
ANSI31
 70
     0
 71
     1
 91
        1
 92
        7
 72
     0
 73
     1
 93
       19
 10
551.0387154436346
 20
364.0796991302395
 10
535.3164476191814
 20
378.6110828331979
 10
519.5941797947283
 20
364.0796991302397
 10
519.5941797947281
 20
202.4334646126866
 10
512.3215359627956
 20
202.4334646126866
 10
512.3215359627959
 20
180.3014206355845
 10
513.4022441415366
 20
180.1089544271152
 10
520.1792839201409
 20
179.7354848727357
 10
525.9961707221209
 20
180.1326295878342
 10
531.0752059795207
 20
181.0269447993702
 10
535.6386911243873
 20
182.1449867343033
 10
539.9089275887636
 20
183.2133116195921
 10
544.1082168046973
 20
183.9584756821967
 10
548.4046915427028
 20
184.1704994617016
 10
552.74980992717
 20
183.8932607481908
 10
557.0408614209591
 20
183.2341016443739
 10
558.3113592755668
 20
182.9471561410938
 10
558.311359275567
 20
202.4334646126866
 10
551.0387154436346
 20
202.4334646126866
 97
        9
330
210
330
20E
330
20D
330
212
330
213
330
24D
330
215
330
214
330
20F
 75
     0
 76
     1
 52
0.0
 41
2.0
 77
     0
 78
     1
 53
45.0
 43
512.3215359627956
 44
179.7354848727357
 45
-4.490128060534575
 46
4.490128060534575
 79
     0
 47
1.213960180045362
 98
        1
 10
536.2022011874269
 20
302.1708106229422
1001
ACAD
1010
512.3215359627956
1020
179.7354848727357
1030
0.0
  0
HATCH
  5
304
330
1F
100
AcDbEntity
  8
1
100
AcDbHatch
 10
0.0
 20
0.0
 30
0.0
210
0.0
220
0.0
230
1.0
  2
ANSI31
 70
     0
 71
     1
 91
        1
 92
        7
 72
     0
 73
     1
 93
       18
 10
551.0387154436345
 20
22.03486600088518
 10
519.5941797947281
 20
1.149641456338539
 10
519.5941797947281
 20
-148.1975165301795
 10
512.3215359627956
 20
-148.1975165301795
 10
512.3215359627959
 20
-170.3295605072818
 10
513.4022441415363
 20
-170.522026715751
 10
520.1792839201409
 20
-170.8954962701305
 10
525.9961707221209
 20
-170.498351555032
 10
531.0752059795203
 20
-169.6040363434962
 10
535.6386911243876
 20
-168.4859944085649
 10
539.9089275887646
 20
-167.4176695232739
 10
544.1082168046973
 20
-166.6725054606694
 10
548.4046915427027
 20
-166.4604816811646
 10
552.7498099271698
 20
-166.7377203946753
 10
557.0408614209594
 20
-167.3968794984924
 10
558.3113592755668
 20
-167.6838250017724
 10
558.311359275567
 20
-148.1975165301796
 10
551.0387154436346
 20
-148.1975165301795
 97
        8
330
2DD
330
2BE
330
2C4
330
2C5
330
2C8
330
2C7
330
2C6
330
2C1
 75
     0
 76
     1
 52
0.0
 41
2.0
 77
     0
 78
     1
 53
45.0
 43
512.3215359627956
 44
-170.8954962701305
 45
-4.490128060534575
 46
4.490128060534575
 79
     0
 47
1.540495340428728
 98
        1
 10
537.3349269902769
 20
-58.75994477052767
1001
ACAD
1010
512.3215359627956
1020
-170.8954962701305
1030
0.0
  0
MTEXT
  5
307
330
1F
100
AcDbEntity
  8
1
100
AcDbMText
 10
230.151829910215
 20
-184.9367819364768
 30
0.0
 40
10.0
 41
98.57589984142444
 71
     1
 72
     5
  1
{\fVerdana|b0|i0|c0|p34;www.studiomirano.it}
 73
     1
 44
1.0
1001
PE_URL
1000
http://www.studiomirano.it
1002
{
1000
www.studiomirano.it
1002
{
1071
        1
1002
}
1002
}
1001
ACAD
1000
MTEXTBEGIN
1070
    73
1070
     1
1070
    44
1040
1.0
1070
    74
1070
     0
1000
MTEXTEND
  0
MTEXT
  5
308
330
1F
100
AcDbEntity
  8
1
100
AcDbMText
 10
733.708553548718
 20
-184.9367819364768
 30
0.0
 40
10.0
 41
98.57589984142444
 71
     1
 72
     5
  1
{\fVerdana|b0|i0|c0|p34;www.studiomirano.it}
 73
     1
 44
1.0
1001
PE_URL
1000
http://www.studiomirano.it
1002
{
1000
www.studiomirano.it
1002
{
1071
        1
1002
}
1002
}
1001
ACAD
1000
MTEXTBEGIN
1070
    73
1070
     1
1070
    44
1040
1.0
1070
    74
1070
     0
1000
MTEXTEND
  0
MTEXT
  5
309
330
1F
100
AcDbEntity
  8
1
100
AcDbMText
 10
733.708553548718
 20
165.6941992063894
 30
0.0
 40
10.0
 41
98.57589984142444
 71
     1
 72
     5
  1
{\fVerdana|b0|i0|c0|p34;www.studiomirano.it}
 73
     1
 44
1.0
1001
PE_URL
1000
http://www.studiomirano.it
1002
{
1000
www.studiomirano.it
1002
{
1071
        1
1002
}
1002
}
1001
ACAD
1000
MTEXTBEGIN
1070
    73
1070
     1
1070
    44
1040
1.0
1070
    74
1070
     0
1000
MTEXTEND
  0
ENDSEC
  0
SECTION
  2
OBJECTS
  0
DICTIONARY
  5
C
330
0
100
AcDbDictionary
281
     1
  3
ACAD_COLOR
350
6B
  3
ACAD_GROUP
350
D
  3
ACAD_LAYOUT
350
1A
  3
ACAD_MATERIAL
350
6A
  3
ACAD_MLINESTYLE
350
17
  3
ACAD_PLOTSETTINGS
350
19
  3
ACAD_PLOTSTYLENAME
350
E
  3
ACAD_TABLESTYLE
350
7E
  3
ACAD_VISUALSTYLE
350
EF
  3
AcDbVariableDictionary
350
5E
  3
DWGPROPS
350
345
  0
DICTIONARY
  5
118
330
2
100
AcDbDictionary
280
     1
281
     1
  3
ACAD_LAYERFILTERS
360
263
  3
ACLYDICTIONARY
360
262
  0
DICTIONARY
  5
11C
330
1F
100
AcDbDictionary
280
     1
281
     1
  3
ACAD_SORTENTS
360
11D
  0
DICTIONARY
  5
34E
330
163
100
AcDbDictionary
280
     1
281
     1
  3
ACAD_MTEXT_RT
360
34F
  0
DICTIONARY
  5
350
330
179
100
AcDbDictionary
280
     1
281
     1
  3
ACAD_MTEXT_RT
360
351
  0
DICTIONARY
  5
352
330
17A
100
AcDbDictionary
280
     1
281
     1
  3
ACAD_MTEXT_RT
360
353
  0
DICTIONARY
  5
354
330
1AF
100
AcDbDictionary
280
     1
281
     1
  3
ACAD_MTEXT_RT
360
355
  0
DICTIONARY
  5
356
330
1B4
100
AcDbDictionary
280
     1
281
     1
  3
ACAD_MTEXT_RT
360
357
  0
DICTIONARY
  5
358
330
1B5
100
AcDbDictionary
280
     1
281
     1
  3
ACAD_MTEXT_RT
360
359
  0
DICTIONARY
  5
35A
330
1B9
100
AcDbDictionary
280
     1
281
     1
  3
ACAD_MTEXT_RT
360
35B
  0
DICTIONARY
  5
35C
330
1BB
100
AcDbDictionary
280
     1
281
     1
  3
ACAD_MTEXT_RT
360
35D
  0
DICTIONARY
  5
35E
330
1F7
100
AcDbDictionary
280
     1
281
     1
  3
ACAD_MTEXT_RT
360
35F
  0
DICTIONARY
  5
360
330
211
100
AcDbDictionary
280
     1
281
     1
  3
ACAD_MTEXT_RT
360
361
  0
DICTIONARY
  5
362
330
291
100
AcDbDictionary
280
     1
281
     1
  3
ACAD_MTEXT_RT
360
363
  0
DICTIONARY
  5
364
330
2BC
100
AcDbDictionary
280
     1
281
     1
  3
ACAD_MTEXT_RT
360
365
  0
DICTIONARY
  5
366
330
2C3
100
AcDbDictionary
280
     1
281
     1
  3
ACAD_MTEXT_RT
360
367
  0
DICTIONARY
  5
6B
102
{ACAD_REACTORS
330
C
102
}
330
C
100
AcDbDictionary
281
     1
  0
DICTIONARY
  5
D
102
{ACAD_REACTORS
330
C
102
}
330
C
100
AcDbDictionary
281
     1
  0
DICTIONARY
  5
1A
102
{ACAD_REACTORS
330
C
102
}
330
C
100
AcDbDictionary
281
     1
  3
Layout1
350
D3
  3
Layout2
350
D7
  3
Model
350
22
  0
DICTIONARY
  5
6A
102
{ACAD_REACTORS
330
C
102
}
330
C
100
AcDbDictionary
281
     1
  3
ByBlock
350
ED
  3
ByLayer
350
EC
  3
Global
350
EE
  0
DICTIONARY
  5
17
102
{ACAD_REACTORS
330
C
102
}
330
C
100
AcDbDictionary
281
     1
  3
Standard
350
18
  0
DICTIONARY
  5
19
102
{ACAD_REACTORS
330
C
102
}
330
C
100
AcDbDictionary
281
     1
  0
ACDBDICTIONARYWDFLT
  5
E
102
{ACAD_REACTORS
330
C
102
}
330
C
100
AcDbDictionary
281
     1
  3
Normal
350
F
100
AcDbDictionaryWithDefault
340
F
  0
DICTIONARY
  5
7E
102
{ACAD_REACTORS
330
C
102
}
330
C
100
AcDbDictionary
281
     1
  3
Standard
350
7F
  0
DICTIONARY
  5
EF
102
{ACAD_REACTORS
330
C
102
}
330
C
100
AcDbDictionary
281
     1
  3
2dWireframe
350
F5
  3
3D Hidden
350
F7
  3
3dWireframe
350
F6
  3
Basic
350
F4
  3
Brighten
350
FB
  3
ColorChange
350
FF
  3
Conceptual
350
F8
  3
Dim
350
FA
  3
Facepattern
350
FE
  3
Flat
350
F0
  3
FlatWithEdges
350
F1
  3
Gouraud
350
F2
  3
GouraudWithEdges
350
F3
  3
Linepattern
350
FD
  3
Realistic
350
F9
  3
Thicken
350
FC
  0
DICTIONARY
  5
5E
102
{ACAD_REACTORS
330
C
102
}
330
C
100
AcDbDictionary
281
     1
  3
CTABLESTYLE
350
84
  3
DIMASSOC
350
5F
  3
HIDETEXT
350
63
  3
INDEXCTL
350
311
  3
PSOLHEIGHT
350
344
  3
PSOLWIDTH
350
343
  3
SORTENTS
350
310
  0
XRECORD
  5
345
102
{ACAD_REACTORS
330
C
102
}
330
C
100
AcDbXrecord
280
     1
  1
DWGPROPS COOKIE
  2

  3

  4

  6

  7

  8
Corradino
  9

300
=
301
=
302
=
303
=
304
=
305
=
306
=
307
=
308
=
309
=
 40
0.0564313888888889
 41
2454083.686085544
 42
2454124.733063079
  1

 90
        0
  0
DICTIONARY
  5
263
102
{ACAD_REACTORS
330
118
102
}
330
118
100
AcDbDictionary
281
     1
  0
DICTIONARY
  5
262
102
{ACAD_REACTORS
330
118
102
}
330
118
100
AcDbDictionary
281
     1
1001
ACAD
1000
<All
  0
SORTENTSTABLE
  5
11D
102
{ACAD_REACTORS
330
11C
102
}
330
11C
100
AcDbSortentsTable
330
1F
331
2BC
  5
2BD
331
11E
  5
148
331
1BF
  5
1BF
331
149
  5
164
331
28F
  5
292
331
172
  5
17A
331
2DD
  5
2F2
331
211
  5
214
331
1BA
  5
1BA
331
2C8
  5
2DC
331
287
  5
20D
331
1C2
  5
1C2
331
17D
  5
183
331
2C3
  5
2C5
331
1B5
  5
1B5
331
18D
  5
18D
331
1B0
  5
1B0
331
2BD
  5
2BE
331
188
  5
188
331
14A
  5
16C
331
2F1
  5
20E
331
212
  5
215
331
1AC
  5
1AC
331
1BB
  5
1BB
331
28B
  5
28D
331
1C3
  5
1C3
331
2B3
  5
2B6
331
1B6
  5
1B6
331
2C4
  5
2C6
331
162
  5
139
331
18E
  5
18E
331
225
  5
288
331
179
  5
17B
331
1F7
  5
1F7
331
1B1
  5
1B1
331
155
  5
11E
331
2BE
  5
2C1
331
189
  5
189
331
291
  5
293
331
11B
  5
14A
331
1AD
  5
1AD
331
1BC
  5
1BC
331
213
  5
225
331
28C
  5
28E
331
304
  5
2C0
331
2B4
  5
2BC
331
1FD
  5
1FD
331
2C5
  5
2C7
331
16C
  5
171
331
163
  5
170
331
20D
  5
20F
331
17A
  5
17D
331
1B2
  5
1B2
331
2C0
  5
2C3
331
18A
  5
18A
331
27F
  5
211
331
292
  5
2B4
331
19D
  5
19D
331
214
  5
226
331
1AE
  5
1AE
331
1BD
  5
1BD
331
170
  5
172
331
2DB
  5
2DD
331
1C5
  5
1C5
331
1FE
  5
1FE
331
1B8
  5
1B8
331
2C6
  5
2C8
331
288
  5
28A
331
20E
  5
210
331
1C0
  5
1C0
331
17B
  5
17F
331
2C1
  5
2C4
331
1B3
  5
1B3
331
18B
  5
18B
331
113
  5
120
331
1AF
  5
1AF
331
148
  5
163
331
1BE
  5
1BE
331
215
  5
227
331
171
  5
179
331
122
  5
14B
331
28E
  5
290
331
24D
  5
24D
331
2DC
  5
2DE
331
1C6
  5
1C6
331
2B6
  5
289
331
2C7
  5
2DB
331
1B9
  5
1B9
331
210
  5
213
331
289
  5
28B
331
20F
  5
212
331
1B4
  5
1B4
331
169
  5
149
331
18C
  5
18C
331
139
  5
156
  0
XRECORD
  5
34F
102
{ACAD_REACTORS
330
34E
102
}
330
34E
100
AcDbXrecord
280
     1
 40
75213.0
  1
{\fVerdana|b0|i0|c0|p34;Proprietà A}
  0
XRECORD
  5
351
102
{ACAD_REACTORS
330
350
102
}
330
350
100
AcDbXrecord
280
     1
 40
75254.0
  1
{\fVerdana|b0|i0|c0|p34;Proprietà B}
  0
XRECORD
  5
353
102
{ACAD_REACTORS
330
352
102
}
330
352
100
AcDbXrecord
280
     1
 40
353264.0
  1
{\fVerdana|b0|i0|c0|p34;La riparazione indicata è a carico di A e B in parti uguali}
  0
XRECORD
  5
355
102
{ACAD_REACTORS
330
354
102
}
330
354
100
AcDbXrecord
280
     1
 40
75213.0
  1
{\fVerdana|b0|i0|c0|p34;Proprietà A}
  0
XRECORD
  5
357
102
{ACAD_REACTORS
330
356
102
}
330
356
100
AcDbXrecord
280
     1
 40
75295.0
  1
{\fVerdana|b0|i0|c0|p34;Proprietà C}
  0
XRECORD
  5
359
102
{ACAD_REACTORS
330
358
102
}
330
358
100
AcDbXrecord
280
     1
 40
2105926.0
  1
{\fVerdana|b0|i0|c0|p34;La riparazione indicata è a carico di A al 50% e per il rimanente 50% è a carico di C per il tratto X e a carico di D per il tratto Y. B non è tenuto a conccorere alla riparazione}
  0
XRECORD
  5
35B
102
{ACAD_REACTORS
330
35A
102
}
330
35A
100
AcDbXrecord
280
     1
 40
75254.0
  1
{\fVerdana|b0|i0|c0|p34;Proprietà B}
  0
XRECORD
  5
35D
102
{ACAD_REACTORS
330
35C
102
}
330
35C
100
AcDbXrecord
280
     1
 40
75336.0
  1
{\fVerdana|b0|i0|c0|p34;Proprietà D}
  0
XRECORD
  5
35F
102
{ACAD_REACTORS
330
35E
102
}
330
35E
100
AcDbXrecord
280
     1
 40
75213.0
  1
{\fVerdana|b0|i0|c0|p34;Proprietà A}
  0
XRECORD
  5
361
102
{ACAD_REACTORS
330
360
102
}
330
360
100
AcDbXrecord
280
     1
 40
75254.0
  1
{\fVerdana|b0|i0|c0|p34;Proprietà B}
  0
XRECORD
  5
363
102
{ACAD_REACTORS
330
362
102
}
330
362
100
AcDbXrecord
280
     1
 40
522543.0
  1
{\fVerdana|b0|i0|c0|p34;In questo caso il muro si presume di A, poichè il piovente è dal suo lato}
  0
XRECORD
  5
365
102
{ACAD_REACTORS
330
364
102
}
330
364
100
AcDbXrecord
280
     1
 40
75213.0
  1
{\fVerdana|b0|i0|c0|p34;Proprietà A}
  0
XRECORD
  5
367
102
{ACAD_REACTORS
330
366
102
}
330
366
100
AcDbXrecord
280
     1
 40
75254.0
  1
{\fVerdana|b0|i0|c0|p34;Proprietà B}
  0
LAYOUT
  5
D3
102
{ACAD_XDICTIONARY
360
34A
102
}
102
{ACAD_REACTORS
330
1A
102
}
330
1A
100
AcDbPlotSettings
  1

  2
C:\Documents and Settings\basas\Application Data\Autodesk\AutoCAD 2005\R16.1\enu\plotters\Default Windows System Printer.pc3
  4

  6

 40
0.0
 41
0.0
 42
0.0
 43
0.0
 44
0.0
 45
0.0
 46
0.0
 47
0.0
 48
0.0
 49
0.0
140
0.0
141
0.0
142
1.0
143
1.0
 70
   688
 72
     0
 73
     0
 74
     5
  7

 75
    16
147
1.0
148
0.0
149
0.0
100
AcDbLayout
  1
Layout1
 70
     1
 71
     1
 10
0.0
 20
0.0
 11
12.0
 21
9.0
 12
0.0
 22
0.0
 32
0.0
 14
0.0
 24
0.0
 34
0.0
 15
0.0
 25
0.0
 35
0.0
146
0.0
 13
0.0
 23
0.0
 33
0.0
 16
1.0
 26
0.0
 36
0.0
 17
0.0
 27
1.0
 37
0.0
 76
     0
330
D2
  0
LAYOUT
  5
D7
102
{ACAD_XDICTIONARY
360
34C
102
}
102
{ACAD_REACTORS
330
1A
102
}
330
1A
100
AcDbPlotSettings
  1

  2
C:\Documents and Settings\basas\Application Data\Autodesk\AutoCAD 2005\R16.1\enu\plotters\Default Windows System Printer.pc3
  4

  6

 40
0.0
 41
0.0
 42
0.0
 43
0.0
 44
0.0
 45
0.0
 46
0.0
 47
0.0
 48
0.0
 49
0.0
140
0.0
141
0.0
142
1.0
143
1.0
 70
   688
 72
     0
 73
     0
 74
     5
  7

 75
    16
147
1.0
148
0.0
149
0.0
100
AcDbLayout
  1
Layout2
 70
     1
 71
     2
 10
0.0
 20
0.0
 11
12.0
 21
9.0
 12
0.0
 22
0.0
 32
0.0
 14
0.0
 24
0.0
 34
0.0
 15
0.0
 25
0.0
 35
0.0
146
0.0
 13
0.0
 23
0.0
 33
0.0
 16
1.0
 26
0.0
 36
0.0
 17
0.0
 27
1.0
 37
0.0
 76
     0
330
D6
  0
LAYOUT
  5
22
102
{ACAD_XDICTIONARY
360
346
102
}
102
{ACAD_REACTORS
330
1A
102
}
330
1A
100
AcDbPlotSettings
  1

  2
none_device
  4
ISO_A4_(210.00_x_297.00_MM)
  6

 40
7.5
 41
20.0
 42
7.5
 43
20.0
 44
210.0
 45
297.0
 46
11.54999923706054
 47
-13.65000009536743
 48
0.0
 49
0.0
140
0.0
141
0.0
142
1.0
143
8.704084754739808
 70
 11952
 72
     1
 73
     0
 74
     0
  7

 75
     0
147
0.1148885871608098
148
0.0
149
0.0
100
AcDbLayout
  1
Model
 70
     1
 71
     0
 10
0.0
 20
0.0
 11
12.0
 21
9.0
 12
0.0
 22
0.0
 32
0.0
 14
0.0
 24
0.0
 34
0.0
 15
0.0
 25
0.0
 35
0.0
146
0.0
 13
0.0
 23
0.0
 33
0.0
 16
1.0
 26
0.0
 36
0.0
 17
0.0
 27
1.0
 37
0.0
 76
     0
330
1F
331
EA
1001
ACAD_PSEXT
1000
None
1000
None
1000
Not applicable
1000
The layout will not be plotted unless a new plotter configuration name is selected.
1070
     0
  0
MATERIAL
  5
ED
102
{ACAD_XDICTIONARY
360
31F
102
}
102
{ACAD_REACTORS
330
6A
102
}
330
6A
100
AcDbMaterial
  1
ByBlock
  0
MATERIAL
  5
EC
102
{ACAD_XDICTIONARY
360
31D
102
}
102
{ACAD_REACTORS
330
6A
102
}
330
6A
100
AcDbMaterial
  1
ByLayer
  0
MATERIAL
  5
EE
102
{ACAD_XDICTIONARY
360
321
102
}
102
{ACAD_REACTORS
330
6A
102
}
330
6A
100
AcDbMaterial
  1
Global
  0
MLINESTYLE
  5
18
102
{ACAD_REACTORS
330
17
102
}
330
17
100
AcDbMlineStyle
  2
STANDARD
 70
     0
  3

 62
   256
 51
90.0
 52
90.0
 71
     2
 49
0.5
 62
   256
  6
BYLAYER
 49
-0.5
 62
   256
  6
BYLAYER
  0
ACDBPLACEHOLDER
  5
F
102
{ACAD_REACTORS
330
E
102
}
330
E
  0
TABLESTYLE
  5
7F
102
{ACAD_XDICTIONARY
360
348
102
}
102
{ACAD_REACTORS
330
7E
102
}
330
7E
100
AcDbTableStyle
  3
Standard
 70
     0
 71
     0
 40
1.5
 41
1.5
280
     0
281
     0
  7
Standard
140
4.5
170
     2
 62
     0
 63
     7
283
     0
274
    -2
284
     1
 64
     0
275
    -2
285
     1
 65
     0
276
    -2
286
     1
 66
     0
277
    -2
287
     1
 67
     0
278
    -2
288
     1
 68
     0
279
    -2
289
     1
 69
     0
  7
Standard
140
6.0
170
     5
 62
     0
 63
     7
283
     0
274
    -2
284
     1
 64
     0
275
    -2
285
     1
 65
     0
276
    -2
286
     1
 66
     0
277
    -2
287
     1
 67
     0
278
    -2
288
     1
 68
     0
279
    -2
289
     1
 69
     0
  7
Standard
140
4.5
170
     5
 62
     0
 63
     7
283
     0
274
    -2
284
     1
 64
     0
275
    -2
285
     1
 65
     0
276
    -2
286
     1
 66
     0
277
    -2
287
     1
 67
     0
278
    -2
288
     1
 68
     0
279
    -2
289
     1
 69
     0
  0
VISUALSTYLE
  5
F5
102
{ACAD_REACTORS
330
EF
102
}
330
EF
100
AcDbVisualStyle
  2
2dWireframe
 70
     4
 71
     0
 72
     2
 73
     1
 90
        0
 40
-0.6
 41
-30.0
 62
     5
 63
     7
 74
     1
 91
        4
 64
     7
 65
   257
 75
     1
175
     1
 42
1.0
 92
        0
 66
   257
 43
1.0
 76
     1
 77
     6
 78
     2
 67
     7
 79
     5
170
     0
171
     0
290
     0
174
     0
 93
        1
 44
0.0
173
     0
291
     0
 45
0.0
1001
ACAD
1000
AcDbSavedByObjectVersion
1070
     0
1000
AcDbSavedByObjectVersion
1070
     0
  0
VISUALSTYLE
  5
F7
102
{ACAD_REACTORS
330
EF
102
}
330
EF
100
AcDbVisualStyle
  2
3D Hidden
 70
     6
 71
     1
 72
     2
 73
     2
 90
        0
 40
-0.6
 41
-30.0
 62
     5
 63
     7
 74
     2
 91
        2
 64
     7
 65
   257
 75
     2
175
     1
 42
40.0
 92
        0
 66
   257
 43
1.0
 76
     1
 77
     6
 78
     2
 67
     7
 79
     3
170
     0
171
     0
290
     0
174
     0
 93
        1
 44
0.0
173
     0
291
     0
 45
0.0
1001
ACAD
1000
AcDbSavedByObjectVersion
1070
     0
1000
AcDbSavedByObjectVersion
1070
     0
  0
VISUALSTYLE
  5
F6
102
{ACAD_REACTORS
330
EF
102
}
330
EF
100
AcDbVisualStyle
  2
3dWireframe
 70
     5
 71
     0
 72
     2
 73
     1
 90
        0
 40
-0.6
 41
-30.0
 62
     5
 63
     7
 74
     1
 91
        4
 64
     7
 65
   257
 75
     1
175
     1
 42
1.0
 92
        0
 66
   257
 43
1.0
 76
     1
 77
     6
 78
     2
 67
     7
 79
     5
170
     0
171
     0
290
     0
174
     0
 93
        1
 44
0.0
173
     0
291
     0
 45
0.0
1001
ACAD
1000
AcDbSavedByObjectVersion
1070
     0
1000
AcDbSavedByObjectVersion
1070
     0
  0
VISUALSTYLE
  5
F4
102
{ACAD_REACTORS
330
EF
102
}
330
EF
100
AcDbVisualStyle
  2
Basic
 70
     7
 71
     1
 72
     0
 73
     1
 90
        0
 40
-0.6
 41
-30.0
 62
     5
 63
     7
 74
     0
 91
        4
 64
     7
 65
   257
 75
     1
175
     1
 42
1.0
 92
        8
 66
     7
 43
1.0
 76
     1
 77
     6
 78
     2
 67
     7
 79
     5
170
     0
171
     0
290
     0
174
     0
 93
        1
 44
0.0
173
     0
291
     1
 45
0.0
1001
ACAD
1000
AcDbSavedByObjectVersion
1070
     0
1000
AcDbSavedByObjectVersion
1070
     0
  0
VISUALSTYLE
  5
FB
102
{ACAD_REACTORS
330
EF
102
}
330
EF
100
AcDbVisualStyle
  2
Brighten
 70
    12
 71
     2
 72
     2
 73
     1
 90
        0
 40
-0.6
 41
-30.0
 62
     5
 63
     7
 74
     1
 91
        4
 64
     7
 65
   257
 75
     1
175
     1
 42
1.0
 92
        8
 66
     7
 43
1.0
 76
     1
 77
     6
 78
     2
 67
     7
 79
     5
170
     0
171
     0
290
     0
174
     0
 93
        1
 44
50.0
173
     0
291
     1
 45
0.0
1001
ACAD
1000
AcDbSavedByObjectVersion
1070
     0
1000
AcDbSavedByObjectVersion
1070
     0
  0
VISUALSTYLE
  5
FF
102
{ACAD_REACTORS
330
EF
102
}
330
EF
100
AcDbVisualStyle
  2
ColorChange
 70
    16
 71
     2
 72
     2
 73
     3
 90
        0
 40
-0.6
 41
-30.0
 62
     5
 63
     8
 74
     1
 91
        4
 64
     7
 65
   257
 75
     1
175
     1
 42
1.0
 92
        8
 66
     8
 43
1.0
 76
     1
 77
     6
 78
     2
 67
     7
 79
     5
170
     0
171
     0
290
     0
174
     0
 93
        1
 44
0.0
173
     0
291
     1
 45
0.0
1001
ACAD
1000
AcDbSavedByObjectVersion
1070
     0
1000
AcDbSavedByObjectVersion
1070
     0
  0
VISUALSTYLE
  5
F8
102
{ACAD_REACTORS
330
EF
102
}
330
EF
100
AcDbVisualStyle
  2
Conceptual
 70
     9
 71
     3
 72
     2
 73
     1
 90
        0
 40
-0.6
 41
-30.0
 62
     5
 63
     7
 74
     2
 91
        2
 64
     7
 65
   257
 75
     1
175
     1
 42
40.0
 92
        8
 66
     7
 43
1.0
 76
     1
 77
     6
 78
     2
 67
     7
 79
     3
170
     0
171
     0
290
     0
174
     0
 93
        1
 44
0.0
173
     0
291
     0
 45
0.0
1001
ACAD
1000
AcDbSavedByObjectVersion
1070
     0
1000
AcDbSavedByObjectVersion
1070
     0
  0
VISUALSTYLE
  5
FA
102
{ACAD_REACTORS
330
EF
102
}
330
EF
100
AcDbVisualStyle
  2
Dim
 70
    11
 71
     2
 72
     2
 73
     1
 90
        0
 40
-0.6
 41
-30.0
 62
     5
 63
     7
 74
     1
 91
        4
 64
     7
 65
   257
 75
     1
175
     1
 42
1.0
 92
        8
 66
     7
 43
1.0
 76
     1
 77
     6
 78
     2
 67
     7
 79
     5
170
     0
171
     0
290
     0
174
     0
 93
        1
 44
-50.0
173
     0
291
     1
 45
0.0
1001
ACAD
1000
AcDbSavedByObjectVersion
1070
     0
1000
AcDbSavedByObjectVersion
1070
     0
  0
VISUALSTYLE
  5
FE
102
{ACAD_REACTORS
330
EF
102
}
330
EF
100
AcDbVisualStyle
  2
Facepattern
 70
    15
 71
     2
 72
     2
 73
     1
 90
        0
 40
-0.6
 41
-30.0
 62
     5
 63
     7
 74
     1
 91
        4
 64
     7
 65
   257
 75
     1
175
     1
 42
1.0
 92
        8
 66
     7
 43
1.0
 76
     1
 77
     6
 78
     2
 67
     7
 79
     5
170
     0
171
     0
290
     0
174
     0
 93
        1
 44
0.0
173
     0
291
     1
 45
0.0
1001
ACAD
1000
AcDbSavedByObjectVersion
1070
     0
1000
AcDbSavedByObjectVersion
1070
     0
  0
VISUALSTYLE
  5
F0
102
{ACAD_REACTORS
330
EF
102
}
330
EF
100
AcDbVisualStyle
  2
Flat
 70
     0
 71
     2
 72
     1
 73
     1
 90
        2
 40
-0.6
 41
30.0
 62
     5
 63
     7
 74
     0
 91
        4
 64
     7
 65
   257
 75
     1
175
     1
 42
1.0
 92
        8
 66
     7
 43
1.0
 76
     1
 77
     6
 78
     2
 67
     7
 79
     5
170
     0
171
     0
290
     0
174
     0
 93
        1
 44
0.0
173
     0
291
     1
 45
0.0
1001
ACAD
1000
AcDbSavedByObjectVersion
1070
     0
1000
AcDbSavedByObjectVersion
1070
     0
  0
VISUALSTYLE
  5
F1
102
{ACAD_REACTORS
330
EF
102
}
330
EF
100
AcDbVisualStyle
  2
FlatWithEdges
 70
     1
 71
     2
 72
     1
 73
     1
 90
        2
 40
-0.6
 41
30.0
 62
     5
 63
     7
 74
     1
 91
        4
 64
     7
 65
   257
 75
     1
175
     1
 42
1.0
 92
        0
 66
   257
 43
1.0
 76
     1
 77
     6
 78
     2
 67
     7
 79
     5
170
     0
171
     0
290
     0
174
     0
 93
        1
 44
0.0
173
     0
291
     1
 45
0.0
1001
ACAD
1000
AcDbSavedByObjectVersion
1070
     0
1000
AcDbSavedByObjectVersion
1070
     0
  0
VISUALSTYLE
  5
F2
102
{ACAD_REACTORS
330
EF
102
}
330
EF
100
AcDbVisualStyle
  2
Gouraud
 70
     2
 71
     2
 72
     2
 73
     1
 90
        2
 40
-0.6
 41
30.0
 62
     5
 63
     7
 74
     0
 91
        4
 64
     7
 65
   257
 75
     1
175
     1
 42
1.0
 92
        0
 66
     7
 43
1.0
 76
     1
 77
     6
 78
     2
 67
     7
 79
     5
170
     0
171
     0
290
     0
174
     0
 93
        1
 44
0.0
173
     0
291
     1
 45
0.0
1001
ACAD
1000
AcDbSavedByObjectVersion
1070
     0
1000
AcDbSavedByObjectVersion
1070
     0
  0
VISUALSTYLE
  5
F3
102
{ACAD_REACTORS
330
EF
102
}
330
EF
100
AcDbVisualStyle
  2
GouraudWithEdges
 70
     3
 71
     2
 72
     2
 73
     1
 90
        2
 40
-0.6
 41
30.0
 62
     5
 63
     7
 74
     1
 91
        4
 64
     7
 65
   257
 75
     1
175
     1
 42
1.0
 92
        0
 66
   257
 43
1.0
 76
     1
 77
     6
 78
     2
 67
     7
 79
     5
170
     0
171
     0
290
     0
174
     0
 93
        1
 44
0.0
173
     0
291
     1
 45
0.0
1001
ACAD
1000
AcDbSavedByObjectVersion
1070
     0
1000
AcDbSavedByObjectVersion
1070
     0
  0
VISUALSTYLE
  5
FD
102
{ACAD_REACTORS
330
EF
102
}
330
EF
100
AcDbVisualStyle
  2
Linepattern
 70
    14
 71
     2
 72
     2
 73
     1
 90
        0
 40
-0.6
 41
-30.0
 62
     5
 63
     7
 74
     1
 91
        4
 64
     7
 65
   257
 75
     7
175
     7
 42
1.0
 92
        8
 66
     7
 43
1.0
 76
     1
 77
     6
 78
     2
 67
     7
 79
     5
170
     0
171
     0
290
     0
174
     0
 93
        1
 44
0.0
173
     0
291
     1
 45
0.0
1001
ACAD
1000
AcDbSavedByObjectVersion
1070
     0
1000
AcDbSavedByObjectVersion
1070
     0
  0
VISUALSTYLE
  5
F9
102
{ACAD_REACTORS
330
EF
102
}
330
EF
100
AcDbVisualStyle
  2
Realistic
 70
     8
 71
     2
 72
     2
 73
     1
 90
        0
 40
-0.6
 41
-30.0
 62
     5
 63
     7
 74
     1
 91
        0
 64
     7
 65
   257
 75
     1
175
     1
 42
1.0
 92
        8
 66
     8
 43
1.0
 76
     1
 77
     6
 78
     2
 67
     7
 79
     5
170
     0
171
     0
290
     0
174
     0
 93
       13
 44
0.0
173
     0
291
     0
 45
0.0
1001
ACAD
1000
AcDbSavedByObjectVersion
1070
     0
1000
AcDbSavedByObjectVersion
1070
     0
  0
VISUALSTYLE
  5
FC
102
{ACAD_REACTORS
330
EF
102
}
330
EF
100
AcDbVisualStyle
  2
Thicken
 70
    13
 71
     2
 72
     2
 73
     1
 90
        0
 40
-0.6
 41
-30.0
 62
     5
 63
     7
 74
     1
 91
        4
 64
     7
 65
   257
 75
     1
175
     1
 42
1.0
 92
       12
 66
     7
 43
1.0
 76
     1
 77
     6
 78
     2
 67
     7
 79
     5
170
     0
171
     0
290
     0
174
     0
 93
        1
 44
0.0
173
     0
291
     1
 45
0.0
1001
ACAD
1000
AcDbSavedByObjectVersion
1070
     0
1000
AcDbSavedByObjectVersion
1070
     0
  0
DICTIONARYVAR
  5
84
102
{ACAD_REACTORS
330
5E
102
}
330
5E
100
DictionaryVariables
280
     0
  1
STANDARD
  0
DICTIONARYVAR
  5
5F
102
{ACAD_REACTORS
330
5E
102
}
330
5E
100
DictionaryVariables
280
     0
  1
2
  0
DICTIONARYVAR
  5
63
102
{ACAD_REACTORS
330
5E
102
}
330
5E
100
DictionaryVariables
280
     0
  1
1
  0
DICTIONARYVAR
  5
311
102
{ACAD_REACTORS
330
5E
102
}
330
5E
100
DictionaryVariables
280
     0
  1
0
  0
DICTIONARYVAR
  5
344
102
{ACAD_REACTORS
330
5E
102
}
330
5E
100
DictionaryVariables
280
     0
  1
80.000000
  0
DICTIONARYVAR
  5
343
102
{ACAD_REACTORS
330
5E
102
}
330
5E
100
DictionaryVariables
280
     0
  1
5.000000
  0
DICTIONARYVAR
  5
310
102
{ACAD_REACTORS
330
5E
102
}
330
5E
100
DictionaryVariables
280
     0
  1
127
  0
DICTIONARY
  5
34A
330
D3
100
AcDbDictionary
280
     1
281
     1
  3
ACAD_XREC_ROUNDTRIP
360
34B
  0
DICTIONARY
  5
34C
330
D7
100
AcDbDictionary
280
     1
281
     1
  3
ACAD_XREC_ROUNDTRIP
360
34D
  0
DICTIONARY
  5
346
330
22
100
AcDbDictionary
280
     1
281
     1
  3
ACAD_XREC_ROUNDTRIP
360
347
  0
DICTIONARY
  5
31F
330
ED
100
AcDbDictionary
280
     1
281
     1
  3
ACAD_XREC_ROUNDTRIP
360
320
  0
DICTIONARY
  5
31D
330
EC
100
AcDbDictionary
280
     1
281
     1
  3
ACAD_XREC_ROUNDTRIP
360
31E
  0
DICTIONARY
  5
321
330
EE
100
AcDbDictionary
280
     1
281
     1
  3
ACAD_XREC_ROUNDTRIP
360
322
  0
DICTIONARY
  5
348
330
7F
100
AcDbDictionary
280
     1
281
     1
  3
ACAD_XREC_ROUNDTRIP
360
349
  0
XRECORD
  5
34B
102
{ACAD_REACTORS
330
34A
102
}
330
34A
100
AcDbXrecord
280
     1
102
SHADEPLOT
 70
     0
102
SHADEPLOTRESLEVEL
 70
     2
102
SHADEPLOTCUSTOMDPI
 70
   300
  0
XRECORD
  5
34D
102
{ACAD_REACTORS
330
34C
102
}
330
34C
100
AcDbXrecord
280
     1
102
SHADEPLOT
 70
     0
102
SHADEPLOTRESLEVEL
 70
     2
102
SHADEPLOTCUSTOMDPI
 70
   300
  0
XRECORD
  5
347
102
{ACAD_REACTORS
330
346
102
}
330
346
100
AcDbXrecord
280
     1
102
SHADEPLOT
 70
     0
102
SHADEPLOTRESLEVEL
 70
     2
102
SHADEPLOTCUSTOMDPI
 70
   300
  0
XRECORD
  5
320
102
{ACAD_REACTORS
330
31F
102
}
330
31F
100
AcDbXrecord
280
     1
102
MATERIAL
148
0.0
149
0.0
149
0.0
 93
        0
 94
       63
282
     0
 72
     1
 77
     1
171
     1
175
     1
179
     1
273
     0
  0
XRECORD
  5
31E
102
{ACAD_REACTORS
330
31D
102
}
330
31D
100
AcDbXrecord
280
     1
102
MATERIAL
148
0.0
149
0.0
149
0.0
 93
        0
 94
       63
282
     0
 72
     1
 77
     1
171
     1
175
     1
179
     1
273
     0
  0
XRECORD
  5
322
102
{ACAD_REACTORS
330
321
102
}
330
321
100
AcDbXrecord
280
     1
102
MATERIAL
148
0.0
149
0.0
149
0.0
 93
        0
 94
       63
282
     0
 72
     1
 77
     1
171
     1
175
     1
179
     1
273
     0
  0
XRECORD
  5
349
102
{ACAD_REACTORS
330
348
102
}
330
348
100
AcDbXrecord
280
     1
102
ACAD_ROUNDTRIP_PRE2007_TABLESTYLE
 90
      512
 91
        0
  1

 92
      512
 93
        0
  2

 94
      512
 95
        0
  3

  0
ENDSEC
  0
EOF
